999
dxflib 3.17.0.0
  0
SECTION
  2
HEADER
  9
$ACADVER
  1
AC1015
  9
$HANDSEED
  5
FFFF
  9
$ANGBASE
 50
0.0
  9
$ANGDIR
 70
0
  9
$ATTMODE
 70
1
  9
$AUNITS
 70
0
  9
$AUPREC
 70
0
  9
$CECOLOR
 62
256
  9
$CELTSCALE
 40
1.0
  9
$CHAMFERA
 40
0.0
  9
$CHAMFERB
 40
0.0
  9
$CHAMFERC
 40
0.0
  9
$CHAMFERD
 40
0.0
  9
$CMLJUST
 70
0
  9
$CMLSCALE
 40
1.0
  9
$DIMADEC
 70
0
  9
$DIMALT
 70
0
  9
$DIMALTD
 70
2
  9
$DIMALTF
 40
25.399999999999999
  9
$DIMALTRND
 40
0.0
  9
$DIMALTTD
 70
2
  9
$DIMALTTZ
 70
0
  9
$DIMALTU
 70
2
  9
$DIMALTZ
 70
0
  9
$DIMAPOST
  1

  9
$DIMASZ
 40
0.18
  9
$DIMATFIT
 70
3
  9
$DIMAUNIT
 70
0
  9
$DIMAZIN
 70
0
  9
$DIMBLK
  1

  9
$DIMBLK1
  1

  9
$DIMBLK2
  1

  9
$DIMCEN
 40
0.09
  9
$DIMCLRD
 70
0
  9
$DIMCLRE
 70
0
  9
$DIMCLRT
 70
0
  9
$DIMDEC
 70
4
  9
$DIMDLE
 40
0.0
  9
$DIMDLI
 40
0.38
  9
$DIMDSEP
 70
46
  9
$DIMEXE
 40
0.18
  9
$DIMEXO
 40
0.0625
  9
$DIMFRAC
 70
0
  9
$DIMGAP
 40
0.09
  9
$DIMJUST
 70
0
  9
$DIMLDRBLK
  1

  9
$DIMLFAC
 40
1.0
  9
$DIMLIM
 70
0
  9
$DIMLUNIT
 70
2
  9
$DIMLWD
 70
-2
  9
$DIMLWE
 70
-2
  9
$DIMPOST
  1

  9
$DIMRND
 40
0.0
  9
$DIMSAH
 70
0
  9
$DIMSCALE
 40
1.0
  9
$DIMSD1
 70
0
  9
$DIMSD2
 70
0
  9
$DIMSE1
 70
0
  9
$DIMSE2
 70
0
  9
$DIMSOXD
 70
0
  9
$DIMTAD
 70
0
  9
$DIMTDEC
 70
4
  9
$DIMTFAC
 40
1.0
  9
$DIMTIH
 70
1
  9
$DIMTIX
 70
0
  9
$DIMTM
 40
0.0
  9
$DIMTOFL
 70
0
  9
$DIMTOH
 70
1
  9
$DIMTOL
 70
0
  9
$DIMTOLJ
 70
1
  9
$DIMTP
 40
0.0
  9
$DIMTSZ
 40
0.0
  9
$DIMTVP
 40
0.0
  9
$DIMTXSTY
  7
STANDARD
  9
$DIMTXT
 40
0.18
  9
$DIMTZIN
 70
0
  9
$DIMUPT
 70
0
  9
$DIMZIN
 70
0
  9
$DISPSILH
 70
0
  9
$DWGCODEPAGE
  3
ANSI_1252
  9
$ELEVATION
 40
0.0
  9
$EXTMAX
 10
400.79286711488828
 20
304.1199673322036
 30
0.0
  9
$EXTMIN
 10
0.0
 20
-0.8486938277962305
 30
0.0
  9
$FILLETRAD
 40
1.5
  9
$FILLMODE
 70
1
  9
$INSBASE
 10
0.0
 20
0.0
 30
0.0
  9
$INSUNITS
 70
4
  9
$LIMCHECK
 70
0
  9
$LIMMAX
 10
12.0
 20
9.0
  9
$LIMMIN
 10
0.0
 20
0.0
  9
$LTSCALE
 40
1.0
  9
$LUNITS
 70
2
  9
$LUPREC
 70
4
  9
$MAXACTVP
 70
64
  9
$MEASUREMENT
 70
0
  9
$MIRRTEXT
 70
0
  9
$ORTHOMODE
 70
0
  9
$PDMODE
 70
0
  9
$PDSIZE
 40
0.0
  9
$PELEVATION
 40
0.0
  9
$PEXTMAX
 10
-100000000000000000000.0
 20
-100000000000000000000.0
 30
-100000000000000000000.0
  9
$PEXTMIN
 10
100000000000000000000.0
 20
100000000000000000000.0
 30
100000000000000000000.0
  9
$PINSBASE
 10
0.0
 20
0.0
 30
0.0
  9
$PLIMCHECK
 70
0
  9
$PLIMMAX
 10
12.0
 20
9.0
  9
$PLIMMIN
 10
0.0
 20
0.0
  9
$PLINEGEN
 70
0
  9
$PLINEWID
 40
0.0
  9
$PROXYGRAPHICS
 70
1
  9
$PSLTSCALE
 70
1
  9
$PUCSNAME
  2

  9
$PUCSORG
 10
0.0
 20
0.0
 30
0.0
  9
$PUCSXDIR
 10
1.0
 20
0.0
 30
0.0
  9
$PUCSYDIR
 10
0.0
 20
1.0
 30
0.0
  9
$QTEXTMODE
 70
0
  9
$REGENMODE
 70
1
  9
$SHADEDGE
 70
3
  9
$SHADEDIF
 70
70
  9
$SKETCHINC
 40
0.1
  9
$SKPOLY
 70
0
  9
$SPLFRAME
 70
0
  9
$SPLINESEGS
 70
8
  9
$SPLINETYPE
 70
6
  9
$SURFTAB1
 70
6
  9
$SURFTAB2
 70
6
  9
$SURFTYPE
 70
6
  9
$SURFU
 70
6
  9
$SURFV
 70
6
  9
$TEXTSIZE
 40
0.2
  9
$TEXTSTYLE
  7
STANDARD
  9
$THICKNESS
 40
0.0
  9
$TILEMODE
 70
1
  9
$TRACEWID
 40
0.05
  9
$TREEDEPTH
 70
3020
  9
$UCSNAME
  2

  9
$UCSORG
 10
0.0
 20
0.0
 30
0.0
  9
$UCSXDIR
 10
1.0
 20
0.0
 30
0.0
  9
$UCSYDIR
 10
0.0
 20
1.0
 30
0.0
  9
$UNITMODE
 70
0
  9
$USERI1
 70
0
  9
$USERI2
 70
0
  9
$USERI3
 70
0
  9
$USERI4
 70
0
  9
$USERI5
 70
0
  9
$USERR1
 40
0.0
  9
$USERR2
 40
0.0
  9
$USERR3
 40
0.0
  9
$USERR4
 40
0.0
  9
$USERR5
 40
0.0
  9
$USRTIMER
 70
1
  9
$VISRETAIN
 70
1
  0
ENDSEC
  0
SECTION
  2
TABLES
  0
TABLE
  2
VPORT
  5
8
100
AcDbSymbolTable
 70
1
  0
VPORT
  5
30
100
AcDbSymbolTableRecord
100
AcDbViewportTableRecord
  2
*Active
 70
0
 10
0.0
 20
0.0
 11
1.0
 21
1.0
 12
286.30555555555549
 22
148.5
 13
0.0
 23
0.0
 14
10.0
 24
10.0
 15
10.0
 25
10.0
 16
0.0
 26
0.0
 36
1.0
 17
0.0
 27
0.0
 37
0.0
 40
297.0
 41
1.92798353909465
 42
50.0
 43
0.0
 44
0.0
 50
0.0
 51
0.0
 71
0
 72
100
 73
1
 74
3
 75
1
 76
1
 77
0
 78
0
281
0
 65
1
110
0.0
120
0.0
130
0.0
111
1.0
121
0.0
131
0.0
112
0.0
122
1.0
132
0.0
 79
0
146
0.0
  0
ENDTAB
  0
TABLE
  2
LTYPE
  5
5
100
AcDbSymbolTable
 70
41
  0
LTYPE
  5
16
100
AcDbSymbolTableRecord
100
AcDbLinetypeTableRecord
  2
Continuous
 70
0
  3
Solid line
 72
65
 73
0
 40
0.0
  0
LTYPE
  5
31
100
AcDbSymbolTableRecord
100
AcDbLinetypeTableRecord
  2
CENTERX2
 70
0
  3
Center (2x) ________  __  ________  __  _____
 72
65
 73
4
 40
101.60000000000001
 49
63.5
 74
0
 49
-12.699999999999999
 74
0
 49
12.699999999999999
 74
0
 49
-12.699999999999999
 74
0
  0
LTYPE
  5
32
100
AcDbSymbolTableRecord
100
AcDbLinetypeTableRecord
  2
HIDDEN2
 70
0
  3
Hidden (.5x) _ _ _ _ _ _ _ _ _ _ _ _ _ _ _ _ _ 
 72
65
 73
2
 40
4.7624999999999993
 49
3.1749999999999998
 74
0
 49
-1.5874999999999999
 74
0
  0
LTYPE
  5
33
100
AcDbSymbolTableRecord
100
AcDbLinetypeTableRecord
  2
ACAD_ISO12W100
 70
0
  3
ISO dash double-dot __ . . __ . . __ . . __ . . 
 72
65
 73
6
 40
21.0
 49
12.0
 74
0
 49
-3.0
 74
0
 49
0.0
 74
0
 49
-3.0
 74
0
 49
0.0
 74
0
 49
-3.0
 74
0
  0
LTYPE
  5
34
100
AcDbSymbolTableRecord
100
AcDbLinetypeTableRecord
  2
DIVIDEX2
 70
0
  3
Divide (2x) ________  .  .  ________  .  .  _
 72
65
 73
6
 40
63.5
 49
25.399999999999999
 74
0
 49
-12.699999999999999
 74
0
 49
0.0
 74
0
 49
-12.699999999999999
 74
0
 49
0.0
 74
0
 49
-12.699999999999999
 74
0
  0
LTYPE
  5
35
100
AcDbSymbolTableRecord
100
AcDbLinetypeTableRecord
  2
HIDDEN
 70
0
  3
Hidden __ __ __ __ __ __ __ __ __ __ __ __ __ __
 72
65
 73
2
 40
9.5249999999999986
 49
6.3499999999999996
 74
0
 49
-3.1749999999999998
 74
0
  0
LTYPE
  5
36
100
AcDbSymbolTableRecord
100
AcDbLinetypeTableRecord
  2
HIDDENX2
 70
0
  3
Hidden (2x) ____ ____ ____ ____ ____ ____ ____ 
 72
65
 73
2
 40
19.049999999999997
 49
12.699999999999999
 74
0
 49
-6.3499999999999996
 74
0
  0
LTYPE
  5
15
100
AcDbSymbolTableRecord
100
AcDbLinetypeTableRecord
  2
BYLAYER
 70
0
  3

 72
65
 73
0
 40
0.0
  0
LTYPE
  5
37
100
AcDbSymbolTableRecord
100
AcDbLinetypeTableRecord
  2
ACAD_ISO11W100
 70
0
  3
ISO double-dash dot __ __ . __ __ . __ __ . __ _
 72
65
 73
6
 40
33.0
 49
12.0
 74
0
 49
-3.0
 74
0
 49
12.0
 74
0
 49
-3.0
 74
0
 49
0.0
 74
0
 49
-3.0
 74
0
  0
LTYPE
  5
38
100
AcDbSymbolTableRecord
100
AcDbLinetypeTableRecord
  2
CENTER
 70
0
  3
Center ____ _ ____ _ ____ _ ____ _ ____ _ ____
 72
65
 73
4
 40
50.800000000000004
 49
31.75
 74
0
 49
-6.3499999999999996
 74
0
 49
6.3499999999999996
 74
0
 49
-6.3499999999999996
 74
0
  0
LTYPE
  5
14
100
AcDbSymbolTableRecord
100
AcDbLinetypeTableRecord
  2
BYBLOCK
 70
0
  3

 72
65
 73
0
 40
0.0
  0
LTYPE
  5
39
100
AcDbSymbolTableRecord
100
AcDbLinetypeTableRecord
  2
ACAD_ISO09W100
 70
0
  3
ISO long-dash double-short-dash ____ __ __ ____
 72
65
 73
6
 40
45.0
 49
24.0
 74
0
 49
-3.0
 74
0
 49
6.0
 74
0
 49
-3.0
 74
0
 49
6.0
 74
0
 49
-3.0
 74
0
  0
LTYPE
  5
3A
100
AcDbSymbolTableRecord
100
AcDbLinetypeTableRecord
  2
ACAD_ISO08W100
 70
0
  3
ISO long-dash short-dash ____ __ ____ __ ____ _
 72
65
 73
4
 40
36.0
 49
24.0
 74
0
 49
-3.0
 74
0
 49
6.0
 74
0
 49
-3.0
 74
0
  0
LTYPE
  5
3B
100
AcDbSymbolTableRecord
100
AcDbLinetypeTableRecord
  2
ACAD_ISO03W100
 70
0
  3
ISO dash space __    __    __    __    __    __
 72
65
 73
2
 40
30.0
 49
12.0
 74
0
 49
-18.0
 74
0
  0
LTYPE
  5
3C
100
AcDbSymbolTableRecord
100
AcDbLinetypeTableRecord
  2
PHANTOM
 70
0
  3
Phantom ______  __  __  ______  __  __  ______ 
 72
65
 73
6
 40
63.500000000000007
 49
31.75
 74
0
 49
-6.3499999999999996
 74
0
 49
6.3499999999999996
 74
0
 49
-6.3499999999999996
 74
0
 49
6.3499999999999996
 74
0
 49
-6.3499999999999996
 74
0
  0
LTYPE
  5
3D
100
AcDbSymbolTableRecord
100
AcDbLinetypeTableRecord
  2
BORDERX2
 70
0
  3
Border (2x) ____  ____  .  ____  ____  .  ___
 72
65
 73
6
 40
88.899999999999991
 49
25.399999999999999
 74
0
 49
-12.699999999999999
 74
0
 49
25.399999999999999
 74
0
 49
-12.699999999999999
 74
0
 49
0.0
 74
0
 49
-12.699999999999999
 74
0
  0
LTYPE
  5
3E
100
AcDbSymbolTableRecord
100
AcDbLinetypeTableRecord
  2
BORDER2
 70
0
  3
Border (.5x) __.__.__.__.__.__.__.__.__.__.__.
 72
65
 73
6
 40
22.224999999999998
 49
6.3499999999999996
 74
0
 49
-3.1749999999999998
 74
0
 49
6.3499999999999996
 74
0
 49
-3.1749999999999998
 74
0
 49
0.0
 74
0
 49
-3.1749999999999998
 74
0
  0
LTYPE
  5
3F
100
AcDbSymbolTableRecord
100
AcDbLinetypeTableRecord
  2
ACAD_ISO04W100
 70
0
  3
ISO long-dash dot ____ . ____ . ____ . ____ . _
 72
65
 73
4
 40
30.0
 49
24.0
 74
0
 49
-3.0
 74
0
 49
0.0
 74
0
 49
-3.0
 74
0
  0
LTYPE
  5
40
100
AcDbSymbolTableRecord
100
AcDbLinetypeTableRecord
  2
BORDER
 70
0
  3
Border __ __ . __ __ . __ __ . __ __ . __ __ .
 72
65
 73
6
 40
44.449999999999996
 49
12.699999999999999
 74
0
 49
-6.3499999999999996
 74
0
 49
12.699999999999999
 74
0
 49
-6.3499999999999996
 74
0
 49
0.0
 74
0
 49
-6.3499999999999996
 74
0
  0
LTYPE
  5
41
100
AcDbSymbolTableRecord
100
AcDbLinetypeTableRecord
  2
ACAD_ISO10W100
 70
0
  3
ISO dash dot __ . __ . __ . __ . __ . __ . __ . 
 72
65
 73
4
 40
18.0
 49
12.0
 74
0
 49
-3.0
 74
0
 49
0.0
 74
0
 49
-3.0
 74
0
  0
LTYPE
  5
42
100
AcDbSymbolTableRecord
100
AcDbLinetypeTableRecord
  2
DASHED
 70
0
  3
Dashed __ __ __ __ __ __ __ __ __ __ __ __ __ _
 72
65
 73
2
 40
19.049999999999997
 49
12.699999999999999
 74
0
 49
-6.3499999999999996
 74
0
  0
LTYPE
  5
43
100
AcDbSymbolTableRecord
100
AcDbLinetypeTableRecord
  2
PHANTOM2
 70
0
  3
Phantom (.5x) ___ _ _ ___ _ _ ___ _ _ ___ _ _
 72
65
 73
6
 40
31.750000000000004
 49
15.875
 74
0
 49
-3.1749999999999998
 74
0
 49
3.1749999999999998
 74
0
 49
-3.1749999999999998
 74
0
 49
3.1749999999999998
 74
0
 49
-3.1749999999999998
 74
0
  0
LTYPE
  5
44
100
AcDbSymbolTableRecord
100
AcDbLinetypeTableRecord
  2
ACAD_ISO13W100
 70
0
  3
ISO double-dash double-dot __ __ . . __ __ . . _
 72
65
 73
8
 40
36.0
 49
12.0
 74
0
 49
-3.0
 74
0
 49
12.0
 74
0
 49
-3.0
 74
0
 49
0.0
 74
0
 49
-3.0
 74
0
 49
0.0
 74
0
 49
-3.0
 74
0
  0
LTYPE
  5
45
100
AcDbSymbolTableRecord
100
AcDbLinetypeTableRecord
  2
ACAD_ISO07W100
 70
0
  3
ISO dot . . . . . . . . . . . . . . . . . . . . 
 72
65
 73
2
 40
3.0
 49
0.0
 74
0
 49
-3.0
 74
0
  0
LTYPE
  5
46
100
AcDbSymbolTableRecord
100
AcDbLinetypeTableRecord
  2
DOT
 70
0
  3
Dot . . . . . . . . . . . . . . . . . . . . . . . .
 72
65
 73
2
 40
6.3499999999999996
 49
0.0
 74
0
 49
-6.3499999999999996
 74
0
  0
LTYPE
  5
47
100
AcDbSymbolTableRecord
100
AcDbLinetypeTableRecord
  2
DOTX2
 70
0
  3
Dot (2x) .  .  .  .  .  .  .  .  .  .  .  .  .  .
 72
65
 73
2
 40
12.699999999999999
 49
0.0
 74
0
 49
-12.699999999999999
 74
0
  0
LTYPE
  5
48
100
AcDbSymbolTableRecord
100
AcDbLinetypeTableRecord
  2
ACAD_ISO05W100
 70
0
  3
ISO long-dash double-dot ____ .. ____ .. ____ . 
 72
65
 73
6
 40
33.0
 49
24.0
 74
0
 49
-3.0
 74
0
 49
0.0
 74
0
 49
-3.0
 74
0
 49
0.0
 74
0
 49
-3.0
 74
0
  0
LTYPE
  5
49
100
AcDbSymbolTableRecord
100
AcDbLinetypeTableRecord
  2
PHANTOMX2
 70
0
  3
Phantom (2x) ____________    ____    ____   _
 72
65
 73
6
 40
127.00000000000001
 49
63.5
 74
0
 49
-12.699999999999999
 74
0
 49
12.699999999999999
 74
0
 49
-12.699999999999999
 74
0
 49
12.699999999999999
 74
0
 49
-12.699999999999999
 74
0
  0
LTYPE
  5
4A
100
AcDbSymbolTableRecord
100
AcDbLinetypeTableRecord
  2
CENTER2
 70
0
  3
Center (.5x) ___ _ ___ _ ___ _ ___ _ ___ _ ___
 72
65
 73
4
 40
28.575000000000003
 49
19.050000000000001
 74
0
 49
-3.1749999999999998
 74
0
 49
3.1749999999999998
 74
0
 49
-3.1749999999999998
 74
0
  0
LTYPE
  5
4B
100
AcDbSymbolTableRecord
100
AcDbLinetypeTableRecord
  2
DASHEDX2
 70
0
  3
Dashed (2x) ____  ____  ____  ____  ____  ___
 72
65
 73
2
 40
38.099999999999994
 49
25.399999999999999
 74
0
 49
-12.699999999999999
 74
0
  0
LTYPE
  5
4C
100
AcDbSymbolTableRecord
100
AcDbLinetypeTableRecord
  2
DIVIDE
 70
0
  3
Divide ____ . . ____ . . ____ . . ____ . . ____
 72
65
 73
6
 40
31.75
 49
12.699999999999999
 74
0
 49
-6.3499999999999996
 74
0
 49
0.0
 74
0
 49
-6.3499999999999996
 74
0
 49
0.0
 74
0
 49
-6.3499999999999996
 74
0
  0
LTYPE
  5
4D
100
AcDbSymbolTableRecord
100
AcDbLinetypeTableRecord
  2
ACAD_ISO15W100
 70
0
  3
ISO double-dash triple-dot __ __ . . . __ __ . .
 72
65
 73
10
 40
39.0
 49
12.0
 74
0
 49
-3.0
 74
0
 49
12.0
 74
0
 49
-3.0
 74
0
 49
0.0
 74
0
 49
-3.0
 74
0
 49
0.0
 74
0
 49
-3.0
 74
0
 49
0.0
 74
0
 49
-3.0
 74
0
  0
LTYPE
  5
4E
100
AcDbSymbolTableRecord
100
AcDbLinetypeTableRecord
  2
DASHDOT2
 70
0
  3
Dash dot (.5x) _._._._._._._._._._._._._._._.
 72
65
 73
4
 40
12.699999999999999
 49
6.3499999999999996
 74
0
 49
-3.1749999999999998
 74
0
 49
0.0
 74
0
 49
-3.1749999999999998
 74
0
  0
LTYPE
  5
4F
100
AcDbSymbolTableRecord
100
AcDbLinetypeTableRecord
  2
DASHDOTX2
 70
0
  3
Dash dot (2x) ____  .  ____  .  ____  .  ___
 72
65
 73
4
 40
50.799999999999997
 49
25.399999999999999
 74
0
 49
-12.699999999999999
 74
0
 49
0.0
 74
0
 49
-12.699999999999999
 74
0
  0
LTYPE
  5
50
100
AcDbSymbolTableRecord
100
AcDbLinetypeTableRecord
  2
DASHED2
 70
0
  3
Dashed (.5x) _ _ _ _ _ _ _ _ _ _ _ _ _ _ _ _ _ 
 72
65
 73
2
 40
9.5249999999999986
 49
6.3499999999999996
 74
0
 49
-3.1749999999999998
 74
0
  0
LTYPE
  5
51
100
AcDbSymbolTableRecord
100
AcDbLinetypeTableRecord
  2
DOT2
 70
0
  3
Dot (.5x) ........................................
 72
65
 73
2
 40
3.1749999999999998
 49
0.0
 74
0
 49
-3.1749999999999998
 74
0
  0
LTYPE
  5
52
100
AcDbSymbolTableRecord
100
AcDbLinetypeTableRecord
  2
DIVIDE2
 70
0
  3
Divide (.5x) __..__..__..__..__..__..__..__.._
 72
65
 73
6
 40
15.875
 49
6.3499999999999996
 74
0
 49
-3.1749999999999998
 74
0
 49
0.0
 74
0
 49
-3.1749999999999998
 74
0
 49
0.0
 74
0
 49
-3.1749999999999998
 74
0
  0
LTYPE
  5
53
100
AcDbSymbolTableRecord
100
AcDbLinetypeTableRecord
  2
DASHDOT
 70
0
  3
Dash dot __ . __ . __ . __ . __ . __ . __ . __
 72
65
 73
4
 40
25.399999999999999
 49
12.699999999999999
 74
0
 49
-6.3499999999999996
 74
0
 49
0.0
 74
0
 49
-6.3499999999999996
 74
0
  0
LTYPE
  5
54
100
AcDbSymbolTableRecord
100
AcDbLinetypeTableRecord
  2
ACAD_ISO02W100
 70
0
  3
ISO dash __ __ __ __ __ __ __ __ __ __ __ __ __
 72
65
 73
2
 40
15.0
 49
12.0
 74
0
 49
-3.0
 74
0
  0
LTYPE
  5
55
100
AcDbSymbolTableRecord
100
AcDbLinetypeTableRecord
  2
ACAD_ISO14W100
 70
0
  3
ISO dash triple-dot __ . . . __ . . . __ . . . _
 72
65
 73
8
 40
24.0
 49
12.0
 74
0
 49
-3.0
 74
0
 49
0.0
 74
0
 49
-3.0
 74
0
 49
0.0
 74
0
 49
-3.0
 74
0
 49
0.0
 74
0
 49
-3.0
 74
0
  0
LTYPE
  5
56
100
AcDbSymbolTableRecord
100
AcDbLinetypeTableRecord
  2
ACAD_ISO06W100
 70
0
  3
ISO long-dash triple-dot ____ ... ____ ... ____
 72
65
 73
8
 40
36.0
 49
24.0
 74
0
 49
-3.0
 74
0
 49
0.0
 74
0
 49
-3.0
 74
0
 49
0.0
 74
0
 49
-3.0
 74
0
 49
0.0
 74
0
 49
-3.0
 74
0
  0
ENDTAB
  0
TABLE
  2
LAYER
  5
2
100
AcDbSymbolTable
 70
1
  0
LAYER
  5
10
100
AcDbSymbolTableRecord
100
AcDbLayerTableRecord
  2
0
 70
0
 62
7
420
16777215
  6
Continuous
370
-3
390
F
  0
ENDTAB
  0
TABLE
  2
STYLE
  5
3
100
AcDbSymbolTable
 70
1
  0
STYLE
  5
57
100
AcDbSymbolTableRecord
100
AcDbTextStyleTableRecord
  2
Standard
 70
0
 40
0.0
 41
1.0
 50
0.0
 71
0
 42
2.5
  3

  4

1001
ACAD
1000
txt
1071
0
  0
ENDTAB
  0
TABLE
  2
VIEW
  5
6
100
AcDbSymbolTable
 70
0
  0
ENDTAB
  0
TABLE
  2
UCS
  5
7
100
AcDbSymbolTable
 70
0
  0
ENDTAB
  0
TABLE
  2
APPID
  5
9
100
AcDbSymbolTable
 70
1
  0
APPID
  5
12
100
AcDbSymbolTableRecord
100
AcDbRegAppTableRecord
  2
ACAD
 70
0
  0
APPID
  5
58
100
AcDbSymbolTableRecord
100
AcDbRegAppTableRecord
  2
QCAD
 70
0
  0
ENDTAB
  0
TABLE
  2
DIMSTYLE
  5
A
100
AcDbSymbolTable
 70
1
100
AcDbDimStyleTable
 71
0
  0
DIMSTYLE
105
27
100
AcDbSymbolTableRecord
100
AcDbDimStyleTableRecord
  2
Standard
 41
0.18
 42
0.0625
 43
3.75
 44
0.18
 70
0
 73
0
 74
0
 77
1
 78
8
140
0.18
141
2.5
143
0.03937007874016
147
0.09
171
3
172
1
271
2
272
2
274
3
278
44
283
0
284
8
340
57
  0
ENDTAB
  0
TABLE
  2
BLOCK_RECORD
  5
1
100
AcDbSymbolTable
 70
1
  0
BLOCK_RECORD
  5
1F
100
AcDbSymbolTableRecord
100
AcDbBlockTableRecord
  2
*Model_Space
340
22
  0
BLOCK_RECORD
  5
1B
100
AcDbSymbolTableRecord
100
AcDbBlockTableRecord
  2
*Paper_Space
340
1E
  0
BLOCK_RECORD
  5
23
100
AcDbSymbolTableRecord
100
AcDbBlockTableRecord
  2
*Paper_Space0
340
26
  0
BLOCK_RECORD
  5
59
100
AcDbSymbolTableRecord
100
AcDbBlockTableRecord
  2
A$C9156ae15
340
0
  0
BLOCK_RECORD
  5
5A
100
AcDbSymbolTableRecord
100
AcDbBlockTableRecord
  2
A$C918d9ec4
340
0
  0
BLOCK_RECORD
  5
5B
100
AcDbSymbolTableRecord
100
AcDbBlockTableRecord
  2
A$C76c0349e
340
0
  0
BLOCK_RECORD
  5
5C
100
AcDbSymbolTableRecord
100
AcDbBlockTableRecord
  2
3
340
0
  0
ENDTAB
  0
ENDSEC
  0
SECTION
  2
BLOCKS
  0
BLOCK
  5
20
100
AcDbEntity
  8
0
100
AcDbBlockBegin
  2
*Model_Space
 70
0
 10
0.0
 20
0.0
 30
0.0
  3
*Model_Space
  1

  0
ENDBLK
  5
21
100
AcDbEntity
  8
0
100
AcDbBlockEnd
  0
BLOCK
  5
1C
100
AcDbEntity
 67
1
  8
0
100
AcDbBlockBegin
  2
*Paper_Space
 70
0
 10
0.0
 20
0.0
 30
0.0
  3
*Paper_Space
  1

  0
ENDBLK
  5
1D
100
AcDbEntity
 67
1
  8
0
100
AcDbBlockEnd
  0
BLOCK
  5
24
100
AcDbEntity
  8
0
100
AcDbBlockBegin
  2
*Paper_Space0
 70
0
 10
0.0
 20
0.0
 30
0.0
  3
*Paper_Space0
  1

  0
ENDBLK
  5
25
100
AcDbEntity
  8
0
100
AcDbBlockEnd
  0
BLOCK
  5
5D
100
AcDbEntity
  8
0
100
AcDbBlockBegin
  2
A$C9156ae15
 70
0
 10
0.0
 20
0.0
 30
0.0
  3
A$C9156ae15
  1

  0
LINE
  5
5E
100
AcDbEntity
  8
0
 62
7
420
16777215
370
25
 48
1.0
  6
Continuous
100
AcDbLine
 10
172.50000125247141
 20
18.799999859331251
 30
0.0
 11
172.50000125247141
 21
9.1999998593312853
 31
0.0
  0
ARC
  5
5F
100
AcDbEntity
  8
0
 62
7
420
16777215
370
25
 48
1.0
  6
Continuous
100
AcDbCircle
 10
173.70000125247151
 20
18.799999859331251
 30
0.0
 40
1.200000000000004
100
AcDbArc
 50
90.0
 51
180.0
  0
LINE
  5
60
100
AcDbEntity
  8
0
 62
7
420
16777215
370
25
 48
1.0
  6
Continuous
100
AcDbLine
 10
175.02762072297139
 20
19.99999985933129
 30
0.0
 11
173.70000125247151
 21
19.99999985933129
 31
0.0
  0
ARC
  5
61
100
AcDbEntity
  8
0
 62
7
420
16777215
370
25
 48
1.0
  6
Continuous
100
AcDbCircle
 10
175.02762072297139
 20
20.599999859331319
 30
0.0
 40
0.6000000000000011
100
AcDbArc
 50
270.0
 51
319.99479911509968
  0
ARC
  5
62
100
AcDbEntity
  8
0
 62
7
420
16777215
370
25
 48
1.0
  6
Continuous
100
AcDbCircle
 10
176.1000012524716
 20
19.699999859331282
 30
0.0
 40
0.8000000000000008
100
AcDbArc
 50
220.0052008849004
 51
139.99479911509962
  0
ARC
  5
63
100
AcDbEntity
  8
0
 62
7
420
16777215
370
25
 48
1.0
  6
Continuous
100
AcDbCircle
 10
175.02762072297139
 20
18.799999859331251
 30
0.0
 40
0.6000000000000011
100
AcDbArc
 50
40.00520088490039
 51
90.0
  0
LINE
  5
64
100
AcDbEntity
  8
0
 62
7
420
16777215
370
25
 48
1.0
  6
Continuous
100
AcDbLine
 10
173.70000125247151
 20
19.39999985933127
 30
0.0
 11
175.02762072297139
 21
19.39999985933127
 31
0.0
  0
ARC
  5
65
100
AcDbEntity
  8
0
 62
7
420
16777215
370
25
 48
1.0
  6
Continuous
100
AcDbCircle
 10
173.70000125247151
 20
18.799999859331251
 30
0.0
 40
0.6000000000000068
100
AcDbArc
 50
90.0
 51
180.0
  0
LINE
  5
66
100
AcDbEntity
  8
0
 62
7
420
16777215
370
25
 48
1.0
  6
Continuous
100
AcDbLine
 10
173.1000012524716
 20
9.1999998593312853
 30
0.0
 11
173.1000012524716
 21
18.799999859331251
 31
0.0
  0
ARC
  5
67
100
AcDbEntity
  8
0
 62
7
420
16777215
370
25
 48
1.0
  6
Continuous
100
AcDbCircle
 10
173.70000125247151
 20
9.1999998593312853
 30
0.0
 40
0.6000000000000015
100
AcDbArc
 50
180.0
 51
270.0
  0
LINE
  5
68
100
AcDbEntity
  8
0
 62
7
420
16777215
370
25
 48
1.0
  6
Continuous
100
AcDbLine
 10
175.02762072297139
 20
8.5999998593313194
 30
0.0
 11
173.70000125247151
 21
8.5999998593313194
 31
0.0
  0
ARC
  5
69
100
AcDbEntity
  8
0
 62
7
420
16777215
370
25
 48
1.0
  6
Continuous
100
AcDbCircle
 10
175.02762072297139
 20
9.1999998593312853
 30
0.0
 40
0.6000000000000011
100
AcDbArc
 50
270.0
 51
319.99479911509968
  0
ARC
  5
6A
100
AcDbEntity
  8
0
 62
7
420
16777215
370
25
 48
1.0
  6
Continuous
100
AcDbCircle
 10
176.1000012524716
 20
8.2999998593312512
 30
0.0
 40
0.8000000000000014
100
AcDbArc
 50
220.0052008849004
 51
139.99479911509962
  0
ARC
  5
6B
100
AcDbEntity
  8
0
 62
7
420
16777215
370
25
 48
1.0
  6
Continuous
100
AcDbCircle
 10
175.02762072297139
 20
7.399999859331273
 30
0.0
 40
0.6000000000000008
100
AcDbArc
 50
40.00520088490039
 51
90.0
  0
LINE
  5
6C
100
AcDbEntity
  8
0
 62
7
420
16777215
370
25
 48
1.0
  6
Continuous
100
AcDbLine
 10
173.70000125247151
 20
7.9999998593311261
 30
0.0
 11
175.02762072297139
 21
7.9999998593311261
 31
0.0
  0
ARC
  5
6D
100
AcDbEntity
  8
0
 62
7
420
16777215
370
25
 48
1.0
  6
Continuous
100
AcDbCircle
 10
173.70000125247151
 20
9.1999998593312853
 30
0.0
 40
1.200000000000004
100
AcDbArc
 50
180.0
 51
270.0
  0
LINE
  5
6E
100
AcDbEntity
  8
0
 62
7
420
16777215
370
25
 48
1.0
  6
Continuous
100
AcDbLine
 10
165.00000125247161
 20
18.799999859331251
 30
0.0
 11
165.00000125247161
 21
9.1999998593312853
 31
0.0
  0
ARC
  5
6F
100
AcDbEntity
  8
0
 62
7
420
16777215
370
25
 48
1.0
  6
Continuous
100
AcDbCircle
 10
166.20000125247159
 20
18.799999859331251
 30
0.0
 40
1.2000000000000031
100
AcDbArc
 50
90.0
 51
180.0
  0
LINE
  5
70
100
AcDbEntity
  8
0
 62
7
420
16777215
370
25
 48
1.0
  6
Continuous
100
AcDbLine
 10
167.52762072297151
 20
19.99999985933129
 30
0.0
 11
166.20000125247159
 21
19.99999985933129
 31
0.0
  0
ARC
  5
71
100
AcDbEntity
  8
0
 62
7
420
16777215
370
25
 48
1.0
  6
Continuous
100
AcDbCircle
 10
167.52762072297151
 20
20.599999859331319
 30
0.0
 40
0.6000000000000011
100
AcDbArc
 50
270.0
 51
319.99479911509968
  0
ARC
  5
72
100
AcDbEntity
  8
0
 62
7
420
16777215
370
25
 48
1.0
  6
Continuous
100
AcDbCircle
 10
168.6000012524716
 20
19.699999859331282
 30
0.0
 40
0.7999999999999991
100
AcDbArc
 50
220.0052008849004
 51
139.99479911509962
  0
ARC
  5
73
100
AcDbEntity
  8
0
 62
7
420
16777215
370
25
 48
1.0
  6
Continuous
100
AcDbCircle
 10
167.52762072297151
 20
18.799999859331251
 30
0.0
 40
0.6000000000000011
100
AcDbArc
 50
40.00520088490039
 51
90.0
  0
LINE
  5
74
100
AcDbEntity
  8
0
 62
7
420
16777215
370
25
 48
1.0
  6
Continuous
100
AcDbLine
 10
166.20000125247159
 20
19.39999985933127
 30
0.0
 11
167.52762072297151
 21
19.39999985933127
 31
0.0
  0
ARC
  5
75
100
AcDbEntity
  8
0
 62
7
420
16777215
370
25
 48
1.0
  6
Continuous
100
AcDbCircle
 10
166.20000125247159
 20
18.799999859331251
 30
0.0
 40
0.6000000000000059
100
AcDbArc
 50
90.0
 51
180.0
  0
LINE
  5
76
100
AcDbEntity
  8
0
 62
7
420
16777215
370
25
 48
1.0
  6
Continuous
100
AcDbLine
 10
165.6000012524716
 20
9.1999998593312853
 30
0.0
 11
165.6000012524716
 21
18.799999859331251
 31
0.0
  0
ARC
  5
77
100
AcDbEntity
  8
0
 62
7
420
16777215
370
25
 48
1.0
  6
Continuous
100
AcDbCircle
 10
166.20000125247159
 20
9.1999998593312853
 30
0.0
 40
0.6000000000000015
100
AcDbArc
 50
180.0
 51
270.0
  0
LINE
  5
78
100
AcDbEntity
  8
0
 62
7
420
16777215
370
25
 48
1.0
  6
Continuous
100
AcDbLine
 10
167.52762072297151
 20
8.5999998593313194
 30
0.0
 11
166.20000125247159
 21
8.5999998593313194
 31
0.0
  0
ARC
  5
79
100
AcDbEntity
  8
0
 62
7
420
16777215
370
25
 48
1.0
  6
Continuous
100
AcDbCircle
 10
167.52762072297151
 20
9.1999998593312853
 30
0.0
 40
0.6000000000000011
100
AcDbArc
 50
270.0
 51
319.99479911509968
  0
ARC
  5
7A
100
AcDbEntity
  8
0
 62
7
420
16777215
370
25
 48
1.0
  6
Continuous
100
AcDbCircle
 10
168.6000012524716
 20
8.2999998593312512
 30
0.0
 40
0.7999999999999995
100
AcDbArc
 50
220.0052008849004
 51
139.99479911509962
  0
ARC
  5
7B
100
AcDbEntity
  8
0
 62
7
420
16777215
370
25
 48
1.0
  6
Continuous
100
AcDbCircle
 10
167.52762072297151
 20
7.399999859331273
 30
0.0
 40
0.6000000000000008
100
AcDbArc
 50
40.00520088490039
 51
90.0
  0
LINE
  5
7C
100
AcDbEntity
  8
0
 62
7
420
16777215
370
25
 48
1.0
  6
Continuous
100
AcDbLine
 10
166.20000125247159
 20
7.9999998593311261
 30
0.0
 11
167.52762072297151
 21
7.9999998593311261
 31
0.0
  0
ARC
  5
7D
100
AcDbEntity
  8
0
 62
7
420
16777215
370
25
 48
1.0
  6
Continuous
100
AcDbCircle
 10
166.20000125247159
 20
9.1999998593312853
 30
0.0
 40
1.2000000000000031
100
AcDbArc
 50
180.0
 51
270.0
  0
LINE
  5
7E
100
AcDbEntity
  8
0
 62
7
420
16777215
370
25
 48
1.0
  6
Continuous
100
AcDbLine
 10
307.77645838777141
 20
20.195796374231239
 30
0.0
 11
291.72124685717148
 21
24.497777338231291
 31
0.0
  0
ARC
  5
7F
100
AcDbEntity
  8
0
 62
7
420
16777215
370
25
 48
1.0
  6
Continuous
100
AcDbCircle
 10
290.94478972187159
 20
21.599999859331319
 30
0.0
 40
3.0000000000000209
100
AcDbArc
 50
75.000000000000824
 51
90.0
  0
LINE
  5
80
100
AcDbEntity
  8
0
 62
7
420
16777215
370
25
 48
1.0
  6
Continuous
100
AcDbLine
 10
290.94478972187159
 20
24.599999859331319
 30
0.0
 11
10.00000125247154
 21
24.599999859331319
 31
0.0
  0
LINE
  5
81
100
AcDbEntity
  8
0
 62
7
420
16777215
370
25
 48
1.0
  6
Continuous
100
AcDbLine
 10
10.00000125247154
 20
24.599999859331319
 30
0.0
 11
10.00000125247154
 21
26.199999859331289
 31
0.0
  0
ARC
  5
82
100
AcDbEntity
  8
0
 62
7
420
16777215
370
25
 48
1.0
  6
Continuous
100
AcDbCircle
 10
8.2000012524715071
 20
26.199999859331289
 30
0.0
 40
1.7999999999999989
100
AcDbArc
 50
0.0
 51
90.0
  0
LINE
  5
83
100
AcDbEntity
  8
0
 62
7
420
16777215
370
25
 48
1.0
  6
Continuous
100
AcDbLine
 10
8.2000012524715071
 20
27.9999998593313
 30
0.0
 11
1.800001252471545
 21
27.9999998593313
 31
0.0
  0
ARC
  5
84
100
AcDbEntity
  8
0
 62
7
420
16777215
370
25
 48
1.0
  6
Continuous
100
AcDbCircle
 10
1.800001252471545
 20
26.199999859331289
 30
0.0
 40
1.7999999999999989
100
AcDbArc
 50
90.0
 51
180.0
  0
LINE
  5
85
100
AcDbEntity
  8
0
 62
7
420
16777215
370
25
 48
1.0
  6
Continuous
100
AcDbLine
 10
0.0000012524715345
 20
26.199999859331289
 30
0.0
 11
0.0000012524715345
 21
1.799999859331251
 31
0.0
  0
ARC
  5
86
100
AcDbEntity
  8
0
 62
7
420
16777215
370
25
 48
1.0
  6
Continuous
100
AcDbCircle
 10
1.800001252471545
 20
1.799999859331251
 30
0.0
 40
1.7999999999999989
100
AcDbArc
 50
180.0
 51
270.0
  0
LINE
  5
87
100
AcDbEntity
  8
0
 62
7
420
16777215
370
25
 48
1.0
  6
Continuous
100
AcDbLine
 10
1.800001252471545
 20
-0.0000001406688739
 30
0.0
 11
8.2000012524715071
 21
-0.0000001406688739
 31
0.0
  0
ARC
  5
88
100
AcDbEntity
  8
0
 62
7
420
16777215
370
25
 48
1.0
  6
Continuous
100
AcDbCircle
 10
8.2000012524715071
 20
1.799999859331251
 30
0.0
 40
1.7999999999999989
100
AcDbArc
 50
270.0
 51
0.0
  0
LINE
  5
89
100
AcDbEntity
  8
0
 62
7
420
16777215
370
25
 48
1.0
  6
Continuous
100
AcDbLine
 10
10.00000125247154
 20
1.799999859331251
 30
0.0
 11
10.00000125247154
 21
3.399999859331273
 31
0.0
  0
LINE
  5
8A
100
AcDbEntity
  8
0
 62
7
420
16777215
370
25
 48
1.0
  6
Continuous
100
AcDbLine
 10
10.00000125247154
 20
3.399999859331273
 30
0.0
 11
290.94478972187159
 21
3.399999859331273
 31
0.0
  0
ARC
  5
8B
100
AcDbEntity
  8
0
 62
7
420
16777215
370
25
 48
1.0
  6
Continuous
100
AcDbCircle
 10
290.94478972187159
 20
6.399999859331273
 30
0.0
 40
3.0
100
AcDbArc
 50
270.0
 51
284.9999999999992
  0
LINE
  5
8C
100
AcDbEntity
  8
0
 62
7
420
16777215
370
25
 48
1.0
  6
Continuous
100
AcDbLine
 10
291.72124685717148
 20
3.502222380431248
 30
0.0
 11
307.77645838777141
 21
7.8042033444312997
 31
0.0
  0
ARC
  5
8D
100
AcDbEntity
  8
0
 62
7
420
16777215
370
25
 48
1.0
  6
Continuous
100
AcDbCircle
 10
307.00000125247141
 20
10.701980823231279
 30
0.0
 40
3.0
100
AcDbArc
 50
284.9999999999992
 51
0.0
  0
LINE
  5
8E
100
AcDbEntity
  8
0
 62
7
420
16777215
370
25
 48
1.0
  6
Continuous
100
AcDbLine
 10
310.00000125247158
 20
10.701980823231279
 30
0.0
 11
310.00000125247158
 21
17.298018895431252
 31
0.0
  0
ARC
  5
8F
100
AcDbEntity
  8
0
 62
7
420
16777215
370
25
 48
1.0
  6
Continuous
100
AcDbCircle
 10
307.00000125247141
 20
17.298018895431252
 30
0.0
 40
3.0000000000000009
100
AcDbArc
 50
0.0
 51
75.000000000000824
  0
ARC
  5
90
100
AcDbEntity
  8
0
 62
7
420
16777215
370
25
 48
1.0
  6
Continuous
100
AcDbCircle
 10
181.20000125247151
 20
18.799999859331251
 30
0.0
 40
1.2000000000000031
100
AcDbArc
 50
90.0
 51
180.0
  0
LINE
  5
91
100
AcDbEntity
  8
0
 62
7
420
16777215
370
25
 48
1.0
  6
Continuous
100
AcDbLine
 10
182.52762072297139
 20
19.99999985933129
 30
0.0
 11
181.20000125247151
 21
19.99999985933129
 31
0.0
  0
ARC
  5
92
100
AcDbEntity
  8
0
 62
7
420
16777215
370
25
 48
1.0
  6
Continuous
100
AcDbCircle
 10
182.52762072297139
 20
20.599999859331319
 30
0.0
 40
0.5999999999999996
100
AcDbArc
 50
270.0
 51
319.99479911509968
  0
ARC
  5
93
100
AcDbEntity
  8
0
 62
7
420
16777215
370
25
 48
1.0
  6
Continuous
100
AcDbCircle
 10
183.6000012524716
 20
19.699999859331282
 30
0.0
 40
0.7999999999999998
100
AcDbArc
 50
220.0052008849004
 51
139.99479911509962
  0
ARC
  5
94
100
AcDbEntity
  8
0
 62
7
420
16777215
370
25
 48
1.0
  6
Continuous
100
AcDbCircle
 10
182.52762072297139
 20
18.799999859331251
 30
0.0
 40
0.5999999999999996
100
AcDbArc
 50
40.00520088490039
 51
90.0
  0
LINE
  5
95
100
AcDbEntity
  8
0
 62
7
420
16777215
370
25
 48
1.0
  6
Continuous
100
AcDbLine
 10
181.20000125247151
 20
19.39999985933127
 30
0.0
 11
182.52762072297139
 21
19.39999985933127
 31
0.0
  0
ARC
  5
96
100
AcDbEntity
  8
0
 62
7
420
16777215
370
25
 48
1.0
  6
Continuous
100
AcDbCircle
 10
181.20000125247151
 20
18.799999859331251
 30
0.0
 40
0.600000000000005
100
AcDbArc
 50
90.0
 51
180.0
  0
LINE
  5
97
100
AcDbEntity
  8
0
 62
7
420
16777215
370
25
 48
1.0
  6
Continuous
100
AcDbLine
 10
180.6000012524716
 20
9.1999998593312853
 30
0.0
 11
180.6000012524716
 21
18.799999859331251
 31
0.0
  0
ARC
  5
98
100
AcDbEntity
  8
0
 62
7
420
16777215
370
25
 48
1.0
  6
Continuous
100
AcDbCircle
 10
181.20000125247151
 20
9.1999998593312853
 30
0.0
 40
0.5999999999999996
100
AcDbArc
 50
180.0
 51
270.0
  0
LINE
  5
99
100
AcDbEntity
  8
0
 62
7
420
16777215
370
25
 48
1.0
  6
Continuous
100
AcDbLine
 10
182.52762072297139
 20
8.5999998593313194
 30
0.0
 11
181.20000125247151
 21
8.5999998593313194
 31
0.0
  0
ARC
  5
9A
100
AcDbEntity
  8
0
 62
7
420
16777215
370
25
 48
1.0
  6
Continuous
100
AcDbCircle
 10
182.52762072297139
 20
9.1999998593312853
 30
0.0
 40
0.5999999999999996
100
AcDbArc
 50
270.0
 51
319.99479911509968
  0
ARC
  5
9B
100
AcDbEntity
  8
0
 62
7
420
16777215
370
25
 48
1.0
  6
Continuous
100
AcDbCircle
 10
183.6000012524716
 20
8.2999998593312512
 30
0.0
 40
0.8000000000000003
100
AcDbArc
 50
220.0052008849004
 51
139.99479911509962
  0
ARC
  5
9C
100
AcDbEntity
  8
0
 62
7
420
16777215
370
25
 48
1.0
  6
Continuous
100
AcDbCircle
 10
182.52762072297139
 20
7.399999859331273
 30
0.0
 40
0.5999999999999996
100
AcDbArc
 50
40.00520088490039
 51
90.0
  0
LINE
  5
9D
100
AcDbEntity
  8
0
 62
7
420
16777215
370
25
 48
1.0
  6
Continuous
100
AcDbLine
 10
181.20000125247151
 20
7.9999998593311261
 30
0.0
 11
182.52762072297139
 21
7.9999998593311261
 31
0.0
  0
ARC
  5
9E
100
AcDbEntity
  8
0
 62
7
420
16777215
370
25
 48
1.0
  6
Continuous
100
AcDbCircle
 10
181.20000125247151
 20
9.1999998593312853
 30
0.0
 40
1.2000000000000031
100
AcDbArc
 50
180.0
 51
270.0
  0
LINE
  5
9F
100
AcDbEntity
  8
0
 62
7
420
16777215
370
25
 48
1.0
  6
Continuous
100
AcDbLine
 10
180.00000125247141
 20
18.799999859331251
 30
0.0
 11
180.00000125247141
 21
9.1999998593312853
 31
0.0
  0
ARC
  5
A0
100
AcDbEntity
  8
0
 62
7
420
16777215
370
25
 48
1.0
  6
Continuous
100
AcDbCircle
 10
188.70000125247151
 20
18.799999859331251
 30
0.0
 40
1.2000000000000031
100
AcDbArc
 50
90.0
 51
180.0
  0
LINE
  5
A1
100
AcDbEntity
  8
0
 62
7
420
16777215
370
25
 48
1.0
  6
Continuous
100
AcDbLine
 10
190.02762072297139
 20
19.99999985933129
 30
0.0
 11
188.70000125247151
 21
19.99999985933129
 31
0.0
  0
ARC
  5
A2
100
AcDbEntity
  8
0
 62
7
420
16777215
370
25
 48
1.0
  6
Continuous
100
AcDbCircle
 10
190.02762072297139
 20
20.599999859331319
 30
0.0
 40
0.5999999999999996
100
AcDbArc
 50
270.0
 51
319.99479911509968
  0
ARC
  5
A3
100
AcDbEntity
  8
0
 62
7
420
16777215
370
25
 48
1.0
  6
Continuous
100
AcDbCircle
 10
191.1000012524716
 20
19.699999859331282
 30
0.0
 40
0.7999999999999998
100
AcDbArc
 50
220.0052008849004
 51
139.99479911509962
  0
ARC
  5
A4
100
AcDbEntity
  8
0
 62
7
420
16777215
370
25
 48
1.0
  6
Continuous
100
AcDbCircle
 10
190.02762072297139
 20
18.799999859331251
 30
0.0
 40
0.5999999999999996
100
AcDbArc
 50
40.00520088490039
 51
90.0
  0
LINE
  5
A5
100
AcDbEntity
  8
0
 62
7
420
16777215
370
25
 48
1.0
  6
Continuous
100
AcDbLine
 10
188.70000125247151
 20
19.39999985933127
 30
0.0
 11
190.02762072297139
 21
19.39999985933127
 31
0.0
  0
ARC
  5
A6
100
AcDbEntity
  8
0
 62
7
420
16777215
370
25
 48
1.0
  6
Continuous
100
AcDbCircle
 10
188.70000125247151
 20
18.799999859331251
 30
0.0
 40
0.600000000000005
100
AcDbArc
 50
90.0
 51
180.0
  0
LINE
  5
A7
100
AcDbEntity
  8
0
 62
7
420
16777215
370
25
 48
1.0
  6
Continuous
100
AcDbLine
 10
188.1000012524716
 20
9.1999998593312853
 30
0.0
 11
188.1000012524716
 21
18.799999859331251
 31
0.0
  0
ARC
  5
A8
100
AcDbEntity
  8
0
 62
7
420
16777215
370
25
 48
1.0
  6
Continuous
100
AcDbCircle
 10
188.70000125247151
 20
9.1999998593312853
 30
0.0
 40
0.5999999999999996
100
AcDbArc
 50
180.0
 51
270.0
  0
LINE
  5
A9
100
AcDbEntity
  8
0
 62
7
420
16777215
370
25
 48
1.0
  6
Continuous
100
AcDbLine
 10
190.02762072297139
 20
8.5999998593313194
 30
0.0
 11
188.70000125247151
 21
8.5999998593313194
 31
0.0
  0
ARC
  5
AA
100
AcDbEntity
  8
0
 62
7
420
16777215
370
25
 48
1.0
  6
Continuous
100
AcDbCircle
 10
190.02762072297139
 20
9.1999998593312853
 30
0.0
 40
0.5999999999999996
100
AcDbArc
 50
270.0
 51
319.99479911509968
  0
ARC
  5
AB
100
AcDbEntity
  8
0
 62
7
420
16777215
370
25
 48
1.0
  6
Continuous
100
AcDbCircle
 10
191.1000012524716
 20
8.2999998593312512
 30
0.0
 40
0.8000000000000003
100
AcDbArc
 50
220.0052008849004
 51
139.99479911509962
  0
ARC
  5
AC
100
AcDbEntity
  8
0
 62
7
420
16777215
370
25
 48
1.0
  6
Continuous
100
AcDbCircle
 10
190.02762072297139
 20
7.399999859331273
 30
0.0
 40
0.5999999999999996
100
AcDbArc
 50
40.00520088490039
 51
90.0
  0
LINE
  5
AD
100
AcDbEntity
  8
0
 62
7
420
16777215
370
25
 48
1.0
  6
Continuous
100
AcDbLine
 10
188.70000125247151
 20
7.9999998593311261
 30
0.0
 11
190.02762072297139
 21
7.9999998593311261
 31
0.0
  0
ARC
  5
AE
100
AcDbEntity
  8
0
 62
7
420
16777215
370
25
 48
1.0
  6
Continuous
100
AcDbCircle
 10
188.70000125247151
 20
9.1999998593312853
 30
0.0
 40
1.2000000000000031
100
AcDbArc
 50
180.0
 51
270.0
  0
LINE
  5
AF
100
AcDbEntity
  8
0
 62
7
420
16777215
370
25
 48
1.0
  6
Continuous
100
AcDbLine
 10
187.50000125247149
 20
18.799999859331251
 30
0.0
 11
187.50000125247149
 21
9.1999998593312853
 31
0.0
  0
ARC
  5
B0
100
AcDbEntity
  8
0
 62
7
420
16777215
370
25
 48
1.0
  6
Continuous
100
AcDbCircle
 10
196.20000125247151
 20
18.799999859331251
 30
0.0
 40
1.2000000000000031
100
AcDbArc
 50
90.0
 51
180.0
  0
LINE
  5
B1
100
AcDbEntity
  8
0
 62
7
420
16777215
370
25
 48
1.0
  6
Continuous
100
AcDbLine
 10
197.52762072297139
 20
19.99999985933129
 30
0.0
 11
196.20000125247151
 21
19.99999985933129
 31
0.0
  0
ARC
  5
B2
100
AcDbEntity
  8
0
 62
7
420
16777215
370
25
 48
1.0
  6
Continuous
100
AcDbCircle
 10
197.52762072297139
 20
20.599999859331319
 30
0.0
 40
0.5999999999999996
100
AcDbArc
 50
270.0
 51
319.99479911509968
  0
ARC
  5
B3
100
AcDbEntity
  8
0
 62
7
420
16777215
370
25
 48
1.0
  6
Continuous
100
AcDbCircle
 10
198.6000012524716
 20
19.699999859331282
 30
0.0
 40
0.7999999999999971
100
AcDbArc
 50
220.0052008849004
 51
139.99479911509962
  0
ARC
  5
B4
100
AcDbEntity
  8
0
 62
7
420
16777215
370
25
 48
1.0
  6
Continuous
100
AcDbCircle
 10
197.52762072297139
 20
18.799999859331251
 30
0.0
 40
0.5999999999999996
100
AcDbArc
 50
40.00520088490039
 51
90.0
  0
LINE
  5
B5
100
AcDbEntity
  8
0
 62
7
420
16777215
370
25
 48
1.0
  6
Continuous
100
AcDbLine
 10
196.20000125247151
 20
19.39999985933127
 30
0.0
 11
197.52762072297139
 21
19.39999985933127
 31
0.0
  0
ARC
  5
B6
100
AcDbEntity
  8
0
 62
7
420
16777215
370
25
 48
1.0
  6
Continuous
100
AcDbCircle
 10
196.20000125247151
 20
18.799999859331251
 30
0.0
 40
0.6000000000000032
100
AcDbArc
 50
90.0
 51
180.0
  0
LINE
  5
B7
100
AcDbEntity
  8
0
 62
7
420
16777215
370
25
 48
1.0
  6
Continuous
100
AcDbLine
 10
195.6000012524716
 20
9.1999998593312853
 30
0.0
 11
195.6000012524716
 21
18.799999859331251
 31
0.0
  0
ARC
  5
B8
100
AcDbEntity
  8
0
 62
7
420
16777215
370
25
 48
1.0
  6
Continuous
100
AcDbCircle
 10
196.20000125247151
 20
9.1999998593312853
 30
0.0
 40
0.5999999999999996
100
AcDbArc
 50
180.0
 51
270.0
  0
LINE
  5
B9
100
AcDbEntity
  8
0
 62
7
420
16777215
370
25
 48
1.0
  6
Continuous
100
AcDbLine
 10
197.52762072297139
 20
8.5999998593313194
 30
0.0
 11
196.20000125247151
 21
8.5999998593313194
 31
0.0
  0
ARC
  5
BA
100
AcDbEntity
  8
0
 62
7
420
16777215
370
25
 48
1.0
  6
Continuous
100
AcDbCircle
 10
197.52762072297139
 20
9.1999998593312853
 30
0.0
 40
0.5999999999999996
100
AcDbArc
 50
270.0
 51
319.99479911509968
  0
ARC
  5
BB
100
AcDbEntity
  8
0
 62
7
420
16777215
370
25
 48
1.0
  6
Continuous
100
AcDbCircle
 10
198.6000012524716
 20
8.2999998593312512
 30
0.0
 40
0.7999999999999976
100
AcDbArc
 50
220.0052008849004
 51
139.99479911509962
  0
ARC
  5
BC
100
AcDbEntity
  8
0
 62
7
420
16777215
370
25
 48
1.0
  6
Continuous
100
AcDbCircle
 10
197.52762072297139
 20
7.399999859331273
 30
0.0
 40
0.5999999999999996
100
AcDbArc
 50
40.00520088490039
 51
90.0
  0
LINE
  5
BD
100
AcDbEntity
  8
0
 62
7
420
16777215
370
25
 48
1.0
  6
Continuous
100
AcDbLine
 10
196.20000125247151
 20
7.9999998593311261
 30
0.0
 11
197.52762072297139
 21
7.9999998593311261
 31
0.0
  0
ARC
  5
BE
100
AcDbEntity
  8
0
 62
7
420
16777215
370
25
 48
1.0
  6
Continuous
100
AcDbCircle
 10
196.20000125247151
 20
9.1999998593312853
 30
0.0
 40
1.2000000000000031
100
AcDbArc
 50
180.0
 51
270.0
  0
LINE
  5
BF
100
AcDbEntity
  8
0
 62
7
420
16777215
370
25
 48
1.0
  6
Continuous
100
AcDbLine
 10
195.00000125247141
 20
18.799999859331251
 30
0.0
 11
195.00000125247141
 21
9.1999998593312853
 31
0.0
  0
ARC
  5
C0
100
AcDbEntity
  8
0
 62
7
420
16777215
370
25
 48
1.0
  6
Continuous
100
AcDbCircle
 10
203.70000125247159
 20
18.799999859331251
 30
0.0
 40
1.2000000000000091
100
AcDbArc
 50
90.0
 51
180.0
  0
LINE
  5
C1
100
AcDbEntity
  8
0
 62
7
420
16777215
370
25
 48
1.0
  6
Continuous
100
AcDbLine
 10
205.02762072297159
 20
19.99999985933129
 30
0.0
 11
203.70000125247159
 21
19.99999985933129
 31
0.0
  0
ARC
  5
C2
100
AcDbEntity
  8
0
 62
7
420
16777215
370
25
 48
1.0
  6
Continuous
100
AcDbCircle
 10
205.02762072297159
 20
20.599999859331319
 30
0.0
 40
0.5999999999999996
100
AcDbArc
 50
270.0
 51
319.99479911509968
  0
ARC
  5
C3
100
AcDbEntity
  8
0
 62
7
420
16777215
370
25
 48
1.0
  6
Continuous
100
AcDbCircle
 10
206.1000012524716
 20
19.699999859331282
 30
0.0
 40
0.8000000000000023
100
AcDbArc
 50
220.0052008849004
 51
139.99479911509962
  0
ARC
  5
C4
100
AcDbEntity
  8
0
 62
7
420
16777215
370
25
 48
1.0
  6
Continuous
100
AcDbCircle
 10
205.02762072297159
 20
18.799999859331251
 30
0.0
 40
0.5999999999999996
100
AcDbArc
 50
40.00520088490039
 51
90.0
  0
LINE
  5
C5
100
AcDbEntity
  8
0
 62
7
420
16777215
370
25
 48
1.0
  6
Continuous
100
AcDbLine
 10
203.70000125247159
 20
19.39999985933127
 30
0.0
 11
205.02762072297159
 21
19.39999985933127
 31
0.0
  0
ARC
  5
C6
100
AcDbEntity
  8
0
 62
7
420
16777215
370
25
 48
1.0
  6
Continuous
100
AcDbCircle
 10
203.70000125247159
 20
18.799999859331251
 30
0.0
 40
0.6000000000000088
100
AcDbArc
 50
90.0
 51
180.0
  0
LINE
  5
C7
100
AcDbEntity
  8
0
 62
7
420
16777215
370
25
 48
1.0
  6
Continuous
100
AcDbLine
 10
203.1000012524716
 20
9.1999998593312853
 30
0.0
 11
203.1000012524716
 21
18.799999859331251
 31
0.0
  0
ARC
  5
C8
100
AcDbEntity
  8
0
 62
7
420
16777215
370
25
 48
1.0
  6
Continuous
100
AcDbCircle
 10
203.70000125247159
 20
9.1999998593312853
 30
0.0
 40
0.6000000000000015
100
AcDbArc
 50
180.0
 51
270.0
  0
LINE
  5
C9
100
AcDbEntity
  8
0
 62
7
420
16777215
370
25
 48
1.0
  6
Continuous
100
AcDbLine
 10
205.02762072297159
 20
8.5999998593313194
 30
0.0
 11
203.70000125247159
 21
8.5999998593313194
 31
0.0
  0
ARC
  5
CA
100
AcDbEntity
  8
0
 62
7
420
16777215
370
25
 48
1.0
  6
Continuous
100
AcDbCircle
 10
205.02762072297159
 20
9.1999998593312853
 30
0.0
 40
0.5999999999999996
100
AcDbArc
 50
270.0
 51
319.99479911509968
  0
ARC
  5
CB
100
AcDbEntity
  8
0
 62
7
420
16777215
370
25
 48
1.0
  6
Continuous
100
AcDbCircle
 10
206.1000012524716
 20
8.2999998593312512
 30
0.0
 40
0.8000000000000028
100
AcDbArc
 50
220.0052008849004
 51
139.99479911509962
  0
ARC
  5
CC
100
AcDbEntity
  8
0
 62
7
420
16777215
370
25
 48
1.0
  6
Continuous
100
AcDbCircle
 10
205.02762072297159
 20
7.399999859331273
 30
0.0
 40
0.5999999999999996
100
AcDbArc
 50
40.00520088490039
 51
90.0
  0
LINE
  5
CD
100
AcDbEntity
  8
0
 62
7
420
16777215
370
25
 48
1.0
  6
Continuous
100
AcDbLine
 10
203.70000125247159
 20
7.9999998593311261
 30
0.0
 11
205.02762072297159
 21
7.9999998593311261
 31
0.0
  0
ARC
  5
CE
100
AcDbEntity
  8
0
 62
7
420
16777215
370
25
 48
1.0
  6
Continuous
100
AcDbCircle
 10
203.70000125247159
 20
9.1999998593312853
 30
0.0
 40
1.2000000000000091
100
AcDbArc
 50
180.0
 51
270.0
  0
LINE
  5
CF
100
AcDbEntity
  8
0
 62
7
420
16777215
370
25
 48
1.0
  6
Continuous
100
AcDbLine
 10
202.50000125247161
 20
18.799999859331251
 30
0.0
 11
202.50000125247161
 21
9.1999998593312853
 31
0.0
  0
ARC
  5
D0
100
AcDbEntity
  8
0
 62
7
420
16777215
370
25
 48
1.0
  6
Continuous
100
AcDbCircle
 10
211.20000125247151
 20
18.799999859331251
 30
0.0
 40
1.2000000000000031
100
AcDbArc
 50
90.0
 51
180.0
  0
LINE
  5
D1
100
AcDbEntity
  8
0
 62
7
420
16777215
370
25
 48
1.0
  6
Continuous
100
AcDbLine
 10
212.52762072297151
 20
19.99999985933129
 30
0.0
 11
211.20000125247151
 21
19.99999985933129
 31
0.0
  0
ARC
  5
D2
100
AcDbEntity
  8
0
 62
7
420
16777215
370
25
 48
1.0
  6
Continuous
100
AcDbCircle
 10
212.52762072297151
 20
20.599999859331319
 30
0.0
 40
0.5999999999999996
100
AcDbArc
 50
270.0
 51
319.99479911509968
  0
ARC
  5
D3
100
AcDbEntity
  8
0
 62
7
420
16777215
370
25
 48
1.0
  6
Continuous
100
AcDbCircle
 10
213.6000012524716
 20
19.699999859331282
 30
0.0
 40
0.7999999999999971
100
AcDbArc
 50
220.0052008849004
 51
139.99479911509962
  0
ARC
  5
D4
100
AcDbEntity
  8
0
 62
7
420
16777215
370
25
 48
1.0
  6
Continuous
100
AcDbCircle
 10
212.52762072297151
 20
18.799999859331251
 30
0.0
 40
0.5999999999999996
100
AcDbArc
 50
40.00520088490039
 51
90.0
  0
LINE
  5
D5
100
AcDbEntity
  8
0
 62
7
420
16777215
370
25
 48
1.0
  6
Continuous
100
AcDbLine
 10
211.20000125247151
 20
19.39999985933127
 30
0.0
 11
212.52762072297151
 21
19.39999985933127
 31
0.0
  0
ARC
  5
D6
100
AcDbEntity
  8
0
 62
7
420
16777215
370
25
 48
1.0
  6
Continuous
100
AcDbCircle
 10
211.20000125247151
 20
18.799999859331251
 30
0.0
 40
0.6000000000000032
100
AcDbArc
 50
90.0
 51
180.0
  0
LINE
  5
D7
100
AcDbEntity
  8
0
 62
7
420
16777215
370
25
 48
1.0
  6
Continuous
100
AcDbLine
 10
210.6000012524716
 20
9.1999998593312853
 30
0.0
 11
210.6000012524716
 21
18.799999859331251
 31
0.0
  0
ARC
  5
D8
100
AcDbEntity
  8
0
 62
7
420
16777215
370
25
 48
1.0
  6
Continuous
100
AcDbCircle
 10
211.20000125247151
 20
9.1999998593312853
 30
0.0
 40
0.5999999999999996
100
AcDbArc
 50
180.0
 51
270.0
  0
LINE
  5
D9
100
AcDbEntity
  8
0
 62
7
420
16777215
370
25
 48
1.0
  6
Continuous
100
AcDbLine
 10
212.52762072297151
 20
8.5999998593313194
 30
0.0
 11
211.20000125247151
 21
8.5999998593313194
 31
0.0
  0
ARC
  5
DA
100
AcDbEntity
  8
0
 62
7
420
16777215
370
25
 48
1.0
  6
Continuous
100
AcDbCircle
 10
212.52762072297151
 20
9.1999998593312853
 30
0.0
 40
0.5999999999999996
100
AcDbArc
 50
270.0
 51
319.99479911509968
  0
ARC
  5
DB
100
AcDbEntity
  8
0
 62
7
420
16777215
370
25
 48
1.0
  6
Continuous
100
AcDbCircle
 10
213.6000012524716
 20
8.2999998593312512
 30
0.0
 40
0.7999999999999976
100
AcDbArc
 50
220.0052008849004
 51
139.99479911509962
  0
ARC
  5
DC
100
AcDbEntity
  8
0
 62
7
420
16777215
370
25
 48
1.0
  6
Continuous
100
AcDbCircle
 10
212.52762072297151
 20
7.399999859331273
 30
0.0
 40
0.5999999999999996
100
AcDbArc
 50
40.00520088490039
 51
90.0
  0
LINE
  5
DD
100
AcDbEntity
  8
0
 62
7
420
16777215
370
25
 48
1.0
  6
Continuous
100
AcDbLine
 10
211.20000125247151
 20
7.9999998593311261
 30
0.0
 11
212.52762072297151
 21
7.9999998593311261
 31
0.0
  0
ARC
  5
DE
100
AcDbEntity
  8
0
 62
7
420
16777215
370
25
 48
1.0
  6
Continuous
100
AcDbCircle
 10
211.20000125247151
 20
9.1999998593312853
 30
0.0
 40
1.2000000000000031
100
AcDbArc
 50
180.0
 51
270.0
  0
LINE
  5
DF
100
AcDbEntity
  8
0
 62
7
420
16777215
370
25
 48
1.0
  6
Continuous
100
AcDbLine
 10
210.00000125247149
 20
18.799999859331251
 30
0.0
 11
210.00000125247149
 21
9.1999998593312853
 31
0.0
  0
ARC
  5
E0
100
AcDbEntity
  8
0
 62
7
420
16777215
370
25
 48
1.0
  6
Continuous
100
AcDbCircle
 10
218.7000012524714
 20
18.799999859331251
 30
0.0
 40
1.2000000000000091
100
AcDbArc
 50
90.0
 51
180.0
  0
LINE
  5
E1
100
AcDbEntity
  8
0
 62
7
420
16777215
370
25
 48
1.0
  6
Continuous
100
AcDbLine
 10
220.02762072297139
 20
19.99999985933129
 30
0.0
 11
218.7000012524714
 21
19.99999985933129
 31
0.0
  0
ARC
  5
E2
100
AcDbEntity
  8
0
 62
7
420
16777215
370
25
 48
1.0
  6
Continuous
100
AcDbCircle
 10
220.02762072297139
 20
20.599999859331319
 30
0.0
 40
0.5999999999999996
100
AcDbArc
 50
270.0
 51
319.99479911509968
  0
ARC
  5
E3
100
AcDbEntity
  8
0
 62
7
420
16777215
370
25
 48
1.0
  6
Continuous
100
AcDbCircle
 10
221.1000012524716
 20
19.699999859331282
 30
0.0
 40
0.8000000000000023
100
AcDbArc
 50
220.0052008849004
 51
139.99479911509962
  0
ARC
  5
E4
100
AcDbEntity
  8
0
 62
7
420
16777215
370
25
 48
1.0
  6
Continuous
100
AcDbCircle
 10
220.02762072297139
 20
18.799999859331251
 30
0.0
 40
0.5999999999999996
100
AcDbArc
 50
40.00520088490039
 51
90.0
  0
LINE
  5
E5
100
AcDbEntity
  8
0
 62
7
420
16777215
370
25
 48
1.0
  6
Continuous
100
AcDbLine
 10
218.7000012524714
 20
19.39999985933127
 30
0.0
 11
220.02762072297139
 21
19.39999985933127
 31
0.0
  0
ARC
  5
E6
100
AcDbEntity
  8
0
 62
7
420
16777215
370
25
 48
1.0
  6
Continuous
100
AcDbCircle
 10
218.7000012524714
 20
18.799999859331251
 30
0.0
 40
0.6000000000000088
100
AcDbArc
 50
90.0
 51
180.0
  0
LINE
  5
E7
100
AcDbEntity
  8
0
 62
7
420
16777215
370
25
 48
1.0
  6
Continuous
100
AcDbLine
 10
218.1000012524716
 20
9.1999998593312853
 30
0.0
 11
218.1000012524716
 21
18.799999859331251
 31
0.0
  0
ARC
  5
E8
100
AcDbEntity
  8
0
 62
7
420
16777215
370
25
 48
1.0
  6
Continuous
100
AcDbCircle
 10
218.7000012524714
 20
9.1999998593312853
 30
0.0
 40
0.6000000000000015
100
AcDbArc
 50
180.0
 51
270.0
  0
LINE
  5
E9
100
AcDbEntity
  8
0
 62
7
420
16777215
370
25
 48
1.0
  6
Continuous
100
AcDbLine
 10
220.02762072297139
 20
8.5999998593313194
 30
0.0
 11
218.7000012524714
 21
8.5999998593313194
 31
0.0
  0
ARC
  5
EA
100
AcDbEntity
  8
0
 62
7
420
16777215
370
25
 48
1.0
  6
Continuous
100
AcDbCircle
 10
220.02762072297139
 20
9.1999998593312853
 30
0.0
 40
0.5999999999999996
100
AcDbArc
 50
270.0
 51
319.99479911509968
  0
ARC
  5
EB
100
AcDbEntity
  8
0
 62
7
420
16777215
370
25
 48
1.0
  6
Continuous
100
AcDbCircle
 10
221.1000012524716
 20
8.2999998593312512
 30
0.0
 40
0.8000000000000028
100
AcDbArc
 50
220.0052008849004
 51
139.99479911509962
  0
ARC
  5
EC
100
AcDbEntity
  8
0
 62
7
420
16777215
370
25
 48
1.0
  6
Continuous
100
AcDbCircle
 10
220.02762072297139
 20
7.399999859331273
 30
0.0
 40
0.5999999999999996
100
AcDbArc
 50
40.00520088490039
 51
90.0
  0
LINE
  5
ED
100
AcDbEntity
  8
0
 62
7
420
16777215
370
25
 48
1.0
  6
Continuous
100
AcDbLine
 10
218.7000012524714
 20
7.9999998593311261
 30
0.0
 11
220.02762072297139
 21
7.9999998593311261
 31
0.0
  0
ARC
  5
EE
100
AcDbEntity
  8
0
 62
7
420
16777215
370
25
 48
1.0
  6
Continuous
100
AcDbCircle
 10
218.7000012524714
 20
9.1999998593312853
 30
0.0
 40
1.2000000000000091
100
AcDbArc
 50
180.0
 51
270.0
  0
LINE
  5
EF
100
AcDbEntity
  8
0
 62
7
420
16777215
370
25
 48
1.0
  6
Continuous
100
AcDbLine
 10
217.50000125247149
 20
18.799999859331251
 30
0.0
 11
217.50000125247149
 21
9.1999998593312853
 31
0.0
  0
ARC
  5
F0
100
AcDbEntity
  8
0
 62
7
420
16777215
370
25
 48
1.0
  6
Continuous
100
AcDbCircle
 10
226.20000125247151
 20
18.799999859331251
 30
0.0
 40
1.1999999999999991
100
AcDbArc
 50
90.0
 51
180.0
  0
LINE
  5
F1
100
AcDbEntity
  8
0
 62
7
420
16777215
370
25
 48
1.0
  6
Continuous
100
AcDbLine
 10
227.52762072297151
 20
19.99999985933129
 30
0.0
 11
226.20000125247151
 21
19.99999985933129
 31
0.0
  0
ARC
  5
F2
100
AcDbEntity
  8
0
 62
7
420
16777215
370
25
 48
1.0
  6
Continuous
100
AcDbCircle
 10
227.52762072297151
 20
20.599999859331319
 30
0.0
 40
0.6000000000000039
100
AcDbArc
 50
270.0
 51
319.99479911509968
  0
ARC
  5
F3
100
AcDbEntity
  8
0
 62
7
420
16777215
370
25
 48
1.0
  6
Continuous
100
AcDbCircle
 10
228.6000012524716
 20
19.699999859331282
 30
0.0
 40
0.7999999999999971
100
AcDbArc
 50
220.0052008849004
 51
139.99479911509962
  0
ARC
  5
F4
100
AcDbEntity
  8
0
 62
7
420
16777215
370
25
 48
1.0
  6
Continuous
100
AcDbCircle
 10
227.52762072297151
 20
18.799999859331251
 30
0.0
 40
0.6000000000000039
100
AcDbArc
 50
40.00520088490039
 51
90.0
  0
LINE
  5
F5
100
AcDbEntity
  8
0
 62
7
420
16777215
370
25
 48
1.0
  6
Continuous
100
AcDbLine
 10
226.20000125247151
 20
19.39999985933127
 30
0.0
 11
227.52762072297151
 21
19.39999985933127
 31
0.0
  0
ARC
  5
F6
100
AcDbEntity
  8
0
 62
7
420
16777215
370
25
 48
1.0
  6
Continuous
100
AcDbCircle
 10
226.20000125247151
 20
18.799999859331251
 30
0.0
 40
0.6000000000000032
100
AcDbArc
 50
90.0
 51
180.0
  0
LINE
  5
F7
100
AcDbEntity
  8
0
 62
7
420
16777215
370
25
 48
1.0
  6
Continuous
100
AcDbLine
 10
225.6000012524716
 20
9.1999998593312853
 30
0.0
 11
225.6000012524716
 21
18.799999859331251
 31
0.0
  0
ARC
  5
F8
100
AcDbEntity
  8
0
 62
7
420
16777215
370
25
 48
1.0
  6
Continuous
100
AcDbCircle
 10
226.20000125247151
 20
9.1999998593312853
 30
0.0
 40
0.5999999999999996
100
AcDbArc
 50
180.0
 51
270.0
  0
LINE
  5
F9
100
AcDbEntity
  8
0
 62
7
420
16777215
370
25
 48
1.0
  6
Continuous
100
AcDbLine
 10
227.52762072297151
 20
8.5999998593313194
 30
0.0
 11
226.20000125247151
 21
8.5999998593313194
 31
0.0
  0
ARC
  5
FA
100
AcDbEntity
  8
0
 62
7
420
16777215
370
25
 48
1.0
  6
Continuous
100
AcDbCircle
 10
227.52762072297151
 20
9.1999998593312853
 30
0.0
 40
0.6000000000000039
100
AcDbArc
 50
270.0
 51
319.99479911509968
  0
ARC
  5
FB
100
AcDbEntity
  8
0
 62
7
420
16777215
370
25
 48
1.0
  6
Continuous
100
AcDbCircle
 10
228.6000012524716
 20
8.2999998593312512
 30
0.0
 40
0.7999999999999976
100
AcDbArc
 50
220.0052008849004
 51
139.99479911509962
  0
ARC
  5
FC
100
AcDbEntity
  8
0
 62
7
420
16777215
370
25
 48
1.0
  6
Continuous
100
AcDbCircle
 10
227.52762072297151
 20
7.399999859331273
 30
0.0
 40
0.6000000000000032
100
AcDbArc
 50
40.00520088490039
 51
90.0
  0
LINE
  5
FD
100
AcDbEntity
  8
0
 62
7
420
16777215
370
25
 48
1.0
  6
Continuous
100
AcDbLine
 10
226.20000125247151
 20
7.9999998593311261
 30
0.0
 11
227.52762072297151
 21
7.9999998593311261
 31
0.0
  0
ARC
  5
FE
100
AcDbEntity
  8
0
 62
7
420
16777215
370
25
 48
1.0
  6
Continuous
100
AcDbCircle
 10
226.20000125247151
 20
9.1999998593312853
 30
0.0
 40
1.2000000000000011
100
AcDbArc
 50
180.0
 51
270.0
  0
LINE
  5
FF
100
AcDbEntity
  8
0
 62
7
420
16777215
370
25
 48
1.0
  6
Continuous
100
AcDbLine
 10
225.00000125247161
 20
18.799999859331251
 30
0.0
 11
225.00000125247161
 21
9.1999998593312853
 31
0.0
  0
ARC
  5
100
100
AcDbEntity
  8
0
 62
7
420
16777215
370
25
 48
1.0
  6
Continuous
100
AcDbCircle
 10
233.70000125247151
 20
18.799999859331251
 30
0.0
 40
1.1999999999999991
100
AcDbArc
 50
90.0
 51
180.0
  0
LINE
  5
101
100
AcDbEntity
  8
0
 62
7
420
16777215
370
25
 48
1.0
  6
Continuous
100
AcDbLine
 10
235.02762072297151
 20
19.99999985933129
 30
0.0
 11
233.70000125247151
 21
19.99999985933129
 31
0.0
  0
ARC
  5
102
100
AcDbEntity
  8
0
 62
7
420
16777215
370
25
 48
1.0
  6
Continuous
100
AcDbCircle
 10
235.02762072297151
 20
20.599999859331319
 30
0.0
 40
0.6000000000000149
100
AcDbArc
 50
270.0
 51
319.99479911509968
  0
ARC
  5
103
100
AcDbEntity
  8
0
 62
7
420
16777215
370
25
 48
1.0
  6
Continuous
100
AcDbCircle
 10
236.1000012524716
 20
19.699999859331282
 30
0.0
 40
0.7999999999999859
100
AcDbArc
 50
220.0052008849004
 51
139.99479911509962
  0
ARC
  5
104
100
AcDbEntity
  8
0
 62
7
420
16777215
370
25
 48
1.0
  6
Continuous
100
AcDbCircle
 10
235.02762072297151
 20
18.799999859331251
 30
0.0
 40
0.6000000000000149
100
AcDbArc
 50
40.00520088490039
 51
90.0
  0
LINE
  5
105
100
AcDbEntity
  8
0
 62
7
420
16777215
370
25
 48
1.0
  6
Continuous
100
AcDbLine
 10
233.70000125247151
 20
19.39999985933127
 30
0.0
 11
235.02762072297151
 21
19.39999985933127
 31
0.0
  0
ARC
  5
106
100
AcDbEntity
  8
0
 62
7
420
16777215
370
25
 48
1.0
  6
Continuous
100
AcDbCircle
 10
233.70000125247151
 20
18.799999859331251
 30
0.0
 40
0.6000000000000088
100
AcDbArc
 50
90.0
 51
180.0
  0
LINE
  5
107
100
AcDbEntity
  8
0
 62
7
420
16777215
370
25
 48
1.0
  6
Continuous
100
AcDbLine
 10
233.1000012524716
 20
9.1999998593312853
 30
0.0
 11
233.1000012524716
 21
18.799999859331251
 31
0.0
  0
ARC
  5
108
100
AcDbEntity
  8
0
 62
7
420
16777215
370
25
 48
1.0
  6
Continuous
100
AcDbCircle
 10
233.70000125247151
 20
9.1999998593312853
 30
0.0
 40
0.6000000000000088
100
AcDbArc
 50
180.0
 51
270.0
  0
LINE
  5
109
100
AcDbEntity
  8
0
 62
7
420
16777215
370
25
 48
1.0
  6
Continuous
100
AcDbLine
 10
235.02762072297151
 20
8.5999998593313194
 30
0.0
 11
233.70000125247151
 21
8.5999998593313194
 31
0.0
  0
ARC
  5
10A
100
AcDbEntity
  8
0
 62
7
420
16777215
370
25
 48
1.0
  6
Continuous
100
AcDbCircle
 10
235.02762072297151
 20
9.1999998593312853
 30
0.0
 40
0.6000000000000149
100
AcDbArc
 50
270.0
 51
319.99479911509968
  0
ARC
  5
10B
100
AcDbEntity
  8
0
 62
7
420
16777215
370
25
 48
1.0
  6
Continuous
100
AcDbCircle
 10
236.1000012524716
 20
8.2999998593312512
 30
0.0
 40
0.7999999999999866
100
AcDbArc
 50
220.0052008849004
 51
139.99479911509962
  0
ARC
  5
10C
100
AcDbEntity
  8
0
 62
7
420
16777215
370
25
 48
1.0
  6
Continuous
100
AcDbCircle
 10
235.02762072297151
 20
7.399999859331273
 30
0.0
 40
0.6000000000000142
100
AcDbArc
 50
40.00520088490039
 51
90.0
  0
LINE
  5
10D
100
AcDbEntity
  8
0
 62
7
420
16777215
370
25
 48
1.0
  6
Continuous
100
AcDbLine
 10
233.70000125247151
 20
7.9999998593311261
 30
0.0
 11
235.02762072297151
 21
7.9999998593311261
 31
0.0
  0
ARC
  5
10E
100
AcDbEntity
  8
0
 62
7
420
16777215
370
25
 48
1.0
  6
Continuous
100
AcDbCircle
 10
233.70000125247151
 20
9.1999998593312853
 30
0.0
 40
1.2000000000000011
100
AcDbArc
 50
180.0
 51
270.0
  0
LINE
  5
10F
100
AcDbEntity
  8
0
 62
7
420
16777215
370
25
 48
1.0
  6
Continuous
100
AcDbLine
 10
232.50000125247149
 20
18.799999859331251
 30
0.0
 11
232.50000125247149
 21
9.1999998593312853
 31
0.0
  0
ARC
  5
110
100
AcDbEntity
  8
0
 62
7
420
16777215
370
25
 48
1.0
  6
Continuous
100
AcDbCircle
 10
241.20000125247159
 20
18.799999859331251
 30
0.0
 40
1.2000000000000031
100
AcDbArc
 50
90.0
 51
180.0
  0
LINE
  5
111
100
AcDbEntity
  8
0
 62
7
420
16777215
370
25
 48
1.0
  6
Continuous
100
AcDbLine
 10
242.52762072297159
 20
19.99999985933129
 30
0.0
 11
241.20000125247159
 21
19.99999985933129
 31
0.0
  0
ARC
  5
112
100
AcDbEntity
  8
0
 62
7
420
16777215
370
25
 48
1.0
  6
Continuous
100
AcDbCircle
 10
242.52762072297159
 20
20.599999859331319
 30
0.0
 40
0.5999999999999996
100
AcDbArc
 50
270.0
 51
319.99479911509968
  0
ARC
  5
113
100
AcDbEntity
  8
0
 62
7
420
16777215
370
25
 48
1.0
  6
Continuous
100
AcDbCircle
 10
243.6000012524716
 20
19.699999859331282
 30
0.0
 40
0.8000000000000076
100
AcDbArc
 50
220.0052008849004
 51
139.99479911509962
  0
ARC
  5
114
100
AcDbEntity
  8
0
 62
7
420
16777215
370
25
 48
1.0
  6
Continuous
100
AcDbCircle
 10
242.52762072297159
 20
18.799999859331251
 30
0.0
 40
0.5999999999999996
100
AcDbArc
 50
40.00520088490039
 51
90.0
  0
LINE
  5
115
100
AcDbEntity
  8
0
 62
7
420
16777215
370
25
 48
1.0
  6
Continuous
100
AcDbLine
 10
241.20000125247159
 20
19.39999985933127
 30
0.0
 11
242.52762072297159
 21
19.39999985933127
 31
0.0
  0
ARC
  5
116
100
AcDbEntity
  8
0
 62
7
420
16777215
370
25
 48
1.0
  6
Continuous
100
AcDbCircle
 10
241.20000125247159
 20
18.799999859331251
 30
0.0
 40
0.6000000000000032
100
AcDbArc
 50
90.0
 51
180.0
  0
LINE
  5
117
100
AcDbEntity
  8
0
 62
7
420
16777215
370
25
 48
1.0
  6
Continuous
100
AcDbLine
 10
240.6000012524716
 20
9.1999998593312853
 30
0.0
 11
240.6000012524716
 21
18.799999859331251
 31
0.0
  0
ARC
  5
118
100
AcDbEntity
  8
0
 62
7
420
16777215
370
25
 48
1.0
  6
Continuous
100
AcDbCircle
 10
241.20000125247159
 20
9.1999998593312853
 30
0.0
 40
0.5999999999999996
100
AcDbArc
 50
180.0
 51
270.0
  0
LINE
  5
119
100
AcDbEntity
  8
0
 62
7
420
16777215
370
25
 48
1.0
  6
Continuous
100
AcDbLine
 10
242.52762072297159
 20
8.5999998593313194
 30
0.0
 11
241.20000125247159
 21
8.5999998593313194
 31
0.0
  0
ARC
  5
11A
100
AcDbEntity
  8
0
 62
7
420
16777215
370
25
 48
1.0
  6
Continuous
100
AcDbCircle
 10
242.52762072297159
 20
9.1999998593312853
 30
0.0
 40
0.5999999999999996
100
AcDbArc
 50
270.0
 51
319.99479911509968
  0
ARC
  5
11B
100
AcDbEntity
  8
0
 62
7
420
16777215
370
25
 48
1.0
  6
Continuous
100
AcDbCircle
 10
243.6000012524716
 20
8.2999998593312512
 30
0.0
 40
0.8000000000000082
100
AcDbArc
 50
220.0052008849004
 51
139.99479911509962
  0
ARC
  5
11C
100
AcDbEntity
  8
0
 62
7
420
16777215
370
25
 48
1.0
  6
Continuous
100
AcDbCircle
 10
242.52762072297159
 20
7.399999859331273
 30
0.0
 40
0.5999999999999996
100
AcDbArc
 50
40.00520088490039
 51
90.0
  0
LINE
  5
11D
100
AcDbEntity
  8
0
 62
7
420
16777215
370
25
 48
1.0
  6
Continuous
100
AcDbLine
 10
241.20000125247159
 20
7.9999998593311261
 30
0.0
 11
242.52762072297159
 21
7.9999998593311261
 31
0.0
  0
ARC
  5
11E
100
AcDbEntity
  8
0
 62
7
420
16777215
370
25
 48
1.0
  6
Continuous
100
AcDbCircle
 10
241.20000125247159
 20
9.1999998593312853
 30
0.0
 40
1.2000000000000031
100
AcDbArc
 50
180.0
 51
270.0
  0
LINE
  5
11F
100
AcDbEntity
  8
0
 62
7
420
16777215
370
25
 48
1.0
  6
Continuous
100
AcDbLine
 10
240.00000125247161
 20
18.799999859331251
 30
0.0
 11
240.00000125247161
 21
9.1999998593312853
 31
0.0
  0
ARC
  5
120
100
AcDbEntity
  8
0
 62
7
420
16777215
370
25
 48
1.0
  6
Continuous
100
AcDbCircle
 10
248.70000125247151
 20
18.799999859331251
 30
0.0
 40
1.2000000000000031
100
AcDbArc
 50
90.0
 51
180.0
  0
LINE
  5
121
100
AcDbEntity
  8
0
 62
7
420
16777215
370
25
 48
1.0
  6
Continuous
100
AcDbLine
 10
250.02762072297151
 20
19.99999985933129
 30
0.0
 11
248.70000125247151
 21
19.99999985933129
 31
0.0
  0
ARC
  5
122
100
AcDbEntity
  8
0
 62
7
420
16777215
370
25
 48
1.0
  6
Continuous
100
AcDbCircle
 10
250.02762072297151
 20
20.599999859331319
 30
0.0
 40
0.6000000000000039
100
AcDbArc
 50
270.0
 51
319.99479911509968
  0
ARC
  5
123
100
AcDbEntity
  8
0
 62
7
420
16777215
370
25
 48
1.0
  6
Continuous
100
AcDbCircle
 10
251.1000012524716
 20
19.699999859331282
 30
0.0
 40
0.7999999999999971
100
AcDbArc
 50
220.0052008849004
 51
139.99479911509962
  0
ARC
  5
124
100
AcDbEntity
  8
0
 62
7
420
16777215
370
25
 48
1.0
  6
Continuous
100
AcDbCircle
 10
250.02762072297151
 20
18.799999859331251
 30
0.0
 40
0.6000000000000039
100
AcDbArc
 50
40.00520088490039
 51
90.0
  0
LINE
  5
125
100
AcDbEntity
  8
0
 62
7
420
16777215
370
25
 48
1.0
  6
Continuous
100
AcDbLine
 10
248.70000125247151
 20
19.39999985933127
 30
0.0
 11
250.02762072297151
 21
19.39999985933127
 31
0.0
  0
ARC
  5
126
100
AcDbEntity
  8
0
 62
7
420
16777215
370
25
 48
1.0
  6
Continuous
100
AcDbCircle
 10
248.70000125247151
 20
18.799999859331251
 30
0.0
 40
0.6000000000000088
100
AcDbArc
 50
90.0
 51
180.0
  0
LINE
  5
127
100
AcDbEntity
  8
0
 62
7
420
16777215
370
25
 48
1.0
  6
Continuous
100
AcDbLine
 10
248.1000012524716
 20
9.1999998593312853
 30
0.0
 11
248.1000012524716
 21
18.799999859331251
 31
0.0
  0
ARC
  5
128
100
AcDbEntity
  8
0
 62
7
420
16777215
370
25
 48
1.0
  6
Continuous
100
AcDbCircle
 10
248.70000125247151
 20
9.1999998593312853
 30
0.0
 40
0.6000000000000088
100
AcDbArc
 50
180.0
 51
270.0
  0
LINE
  5
129
100
AcDbEntity
  8
0
 62
7
420
16777215
370
25
 48
1.0
  6
Continuous
100
AcDbLine
 10
250.02762072297151
 20
8.5999998593313194
 30
0.0
 11
248.70000125247151
 21
8.5999998593313194
 31
0.0
  0
ARC
  5
12A
100
AcDbEntity
  8
0
 62
7
420
16777215
370
25
 48
1.0
  6
Continuous
100
AcDbCircle
 10
250.02762072297151
 20
9.1999998593312853
 30
0.0
 40
0.6000000000000039
100
AcDbArc
 50
270.0
 51
319.99479911509968
  0
ARC
  5
12B
100
AcDbEntity
  8
0
 62
7
420
16777215
370
25
 48
1.0
  6
Continuous
100
AcDbCircle
 10
251.1000012524716
 20
8.2999998593312512
 30
0.0
 40
0.7999999999999976
100
AcDbArc
 50
220.0052008849004
 51
139.99479911509962
  0
ARC
  5
12C
100
AcDbEntity
  8
0
 62
7
420
16777215
370
25
 48
1.0
  6
Continuous
100
AcDbCircle
 10
250.02762072297151
 20
7.399999859331273
 30
0.0
 40
0.6000000000000032
100
AcDbArc
 50
40.00520088490039
 51
90.0
  0
LINE
  5
12D
100
AcDbEntity
  8
0
 62
7
420
16777215
370
25
 48
1.0
  6
Continuous
100
AcDbLine
 10
248.70000125247151
 20
7.9999998593311261
 30
0.0
 11
250.02762072297151
 21
7.9999998593311261
 31
0.0
  0
ARC
  5
12E
100
AcDbEntity
  8
0
 62
7
420
16777215
370
25
 48
1.0
  6
Continuous
100
AcDbCircle
 10
248.70000125247151
 20
9.1999998593312853
 30
0.0
 40
1.2000000000000031
100
AcDbArc
 50
180.0
 51
270.0
  0
LINE
  5
12F
100
AcDbEntity
  8
0
 62
7
420
16777215
370
25
 48
1.0
  6
Continuous
100
AcDbLine
 10
247.50000125247141
 20
18.799999859331251
 30
0.0
 11
247.50000125247141
 21
9.1999998593312853
 31
0.0
  0
ARC
  5
130
100
AcDbEntity
  8
0
 62
7
420
16777215
370
25
 48
1.0
  6
Continuous
100
AcDbCircle
 10
256.2000012524714
 20
18.799999859331251
 30
0.0
 40
1.2000000000000031
100
AcDbArc
 50
90.0
 51
180.0
  0
LINE
  5
131
100
AcDbEntity
  8
0
 62
7
420
16777215
370
25
 48
1.0
  6
Continuous
100
AcDbLine
 10
257.52762072297139
 20
19.99999985933129
 30
0.0
 11
256.2000012524714
 21
19.99999985933129
 31
0.0
  0
ARC
  5
132
100
AcDbEntity
  8
0
 62
7
420
16777215
370
25
 48
1.0
  6
Continuous
100
AcDbCircle
 10
257.52762072297139
 20
20.599999859331319
 30
0.0
 40
0.5999999999999996
100
AcDbArc
 50
270.0
 51
319.99479911509968
  0
ARC
  5
133
100
AcDbEntity
  8
0
 62
7
420
16777215
370
25
 48
1.0
  6
Continuous
100
AcDbCircle
 10
258.6000012524716
 20
19.699999859331282
 30
0.0
 40
0.8000000000000076
100
AcDbArc
 50
220.0052008849004
 51
139.99479911509962
  0
ARC
  5
134
100
AcDbEntity
  8
0
 62
7
420
16777215
370
25
 48
1.0
  6
Continuous
100
AcDbCircle
 10
257.52762072297139
 20
18.799999859331251
 30
0.0
 40
0.5999999999999996
100
AcDbArc
 50
40.00520088490039
 51
90.0
  0
LINE
  5
135
100
AcDbEntity
  8
0
 62
7
420
16777215
370
25
 48
1.0
  6
Continuous
100
AcDbLine
 10
256.2000012524714
 20
19.39999985933127
 30
0.0
 11
257.52762072297139
 21
19.39999985933127
 31
0.0
  0
ARC
  5
136
100
AcDbEntity
  8
0
 62
7
420
16777215
370
25
 48
1.0
  6
Continuous
100
AcDbCircle
 10
256.2000012524714
 20
18.799999859331251
 30
0.0
 40
0.6000000000000032
100
AcDbArc
 50
90.0
 51
180.0
  0
LINE
  5
137
100
AcDbEntity
  8
0
 62
7
420
16777215
370
25
 48
1.0
  6
Continuous
100
AcDbLine
 10
255.6000012524716
 20
9.1999998593312853
 30
0.0
 11
255.6000012524716
 21
18.799999859331251
 31
0.0
  0
ARC
  5
138
100
AcDbEntity
  8
0
 62
7
420
16777215
370
25
 48
1.0
  6
Continuous
100
AcDbCircle
 10
256.2000012524714
 20
9.1999998593312853
 30
0.0
 40
0.5999999999999996
100
AcDbArc
 50
180.0
 51
270.0
  0
LINE
  5
139
100
AcDbEntity
  8
0
 62
7
420
16777215
370
25
 48
1.0
  6
Continuous
100
AcDbLine
 10
257.52762072297139
 20
8.5999998593313194
 30
0.0
 11
256.2000012524714
 21
8.5999998593313194
 31
0.0
  0
ARC
  5
13A
100
AcDbEntity
  8
0
 62
7
420
16777215
370
25
 48
1.0
  6
Continuous
100
AcDbCircle
 10
257.52762072297139
 20
9.1999998593312853
 30
0.0
 40
0.5999999999999996
100
AcDbArc
 50
270.0
 51
319.99479911509968
  0
ARC
  5
13B
100
AcDbEntity
  8
0
 62
7
420
16777215
370
25
 48
1.0
  6
Continuous
100
AcDbCircle
 10
258.6000012524716
 20
8.2999998593312512
 30
0.0
 40
0.8000000000000082
100
AcDbArc
 50
220.0052008849004
 51
139.99479911509962
  0
ARC
  5
13C
100
AcDbEntity
  8
0
 62
7
420
16777215
370
25
 48
1.0
  6
Continuous
100
AcDbCircle
 10
257.52762072297139
 20
7.399999859331273
 30
0.0
 40
0.5999999999999996
100
AcDbArc
 50
40.00520088490039
 51
90.0
  0
LINE
  5
13D
100
AcDbEntity
  8
0
 62
7
420
16777215
370
25
 48
1.0
  6
Continuous
100
AcDbLine
 10
256.2000012524714
 20
7.9999998593311261
 30
0.0
 11
257.52762072297139
 21
7.9999998593311261
 31
0.0
  0
ARC
  5
13E
100
AcDbEntity
  8
0
 62
7
420
16777215
370
25
 48
1.0
  6
Continuous
100
AcDbCircle
 10
256.2000012524714
 20
9.1999998593312853
 30
0.0
 40
1.2000000000000031
100
AcDbArc
 50
180.0
 51
270.0
  0
LINE
  5
13F
100
AcDbEntity
  8
0
 62
7
420
16777215
370
25
 48
1.0
  6
Continuous
100
AcDbLine
 10
255.00000125247141
 20
18.799999859331251
 30
0.0
 11
255.00000125247141
 21
9.1999998593312853
 31
0.0
  0
ARC
  5
140
100
AcDbEntity
  8
0
 62
7
420
16777215
370
25
 48
1.0
  6
Continuous
100
AcDbCircle
 10
263.70000125247151
 20
18.799999859331251
 30
0.0
 40
1.2000000000000031
100
AcDbArc
 50
90.0
 51
180.0
  0
LINE
  5
141
100
AcDbEntity
  8
0
 62
7
420
16777215
370
25
 48
1.0
  6
Continuous
100
AcDbLine
 10
265.02762072297151
 20
19.99999985933129
 30
0.0
 11
263.70000125247151
 21
19.99999985933129
 31
0.0
  0
ARC
  5
142
100
AcDbEntity
  8
0
 62
7
420
16777215
370
25
 48
1.0
  6
Continuous
100
AcDbCircle
 10
265.02762072297151
 20
20.599999859331319
 30
0.0
 40
0.6000000000000039
100
AcDbArc
 50
270.0
 51
319.99479911509968
  0
ARC
  5
143
100
AcDbEntity
  8
0
 62
7
420
16777215
370
25
 48
1.0
  6
Continuous
100
AcDbCircle
 10
266.1000012524716
 20
19.699999859331282
 30
0.0
 40
0.7999999999999971
100
AcDbArc
 50
220.0052008849004
 51
139.99479911509962
  0
ARC
  5
144
100
AcDbEntity
  8
0
 62
7
420
16777215
370
25
 48
1.0
  6
Continuous
100
AcDbCircle
 10
265.02762072297151
 20
18.799999859331251
 30
0.0
 40
0.6000000000000039
100
AcDbArc
 50
40.00520088490039
 51
90.0
  0
LINE
  5
145
100
AcDbEntity
  8
0
 62
7
420
16777215
370
25
 48
1.0
  6
Continuous
100
AcDbLine
 10
263.70000125247151
 20
19.39999985933127
 30
0.0
 11
265.02762072297151
 21
19.39999985933127
 31
0.0
  0
ARC
  5
146
100
AcDbEntity
  8
0
 62
7
420
16777215
370
25
 48
1.0
  6
Continuous
100
AcDbCircle
 10
263.70000125247151
 20
18.799999859331251
 30
0.0
 40
0.6000000000000088
100
AcDbArc
 50
90.0
 51
180.0
  0
LINE
  5
147
100
AcDbEntity
  8
0
 62
7
420
16777215
370
25
 48
1.0
  6
Continuous
100
AcDbLine
 10
263.1000012524716
 20
9.1999998593312853
 30
0.0
 11
263.1000012524716
 21
18.799999859331251
 31
0.0
  0
ARC
  5
148
100
AcDbEntity
  8
0
 62
7
420
16777215
370
25
 48
1.0
  6
Continuous
100
AcDbCircle
 10
263.70000125247151
 20
9.1999998593312853
 30
0.0
 40
0.6000000000000088
100
AcDbArc
 50
180.0
 51
270.0
  0
LINE
  5
149
100
AcDbEntity
  8
0
 62
7
420
16777215
370
25
 48
1.0
  6
Continuous
100
AcDbLine
 10
265.02762072297151
 20
8.5999998593313194
 30
0.0
 11
263.70000125247151
 21
8.5999998593313194
 31
0.0
  0
ARC
  5
14A
100
AcDbEntity
  8
0
 62
7
420
16777215
370
25
 48
1.0
  6
Continuous
100
AcDbCircle
 10
265.02762072297151
 20
9.1999998593312853
 30
0.0
 40
0.6000000000000039
100
AcDbArc
 50
270.0
 51
319.99479911509968
  0
ARC
  5
14B
100
AcDbEntity
  8
0
 62
7
420
16777215
370
25
 48
1.0
  6
Continuous
100
AcDbCircle
 10
266.1000012524716
 20
8.2999998593312512
 30
0.0
 40
0.7999999999999976
100
AcDbArc
 50
220.0052008849004
 51
139.99479911509962
  0
ARC
  5
14C
100
AcDbEntity
  8
0
 62
7
420
16777215
370
25
 48
1.0
  6
Continuous
100
AcDbCircle
 10
265.02762072297151
 20
7.399999859331273
 30
0.0
 40
0.6000000000000032
100
AcDbArc
 50
40.00520088490039
 51
90.0
  0
LINE
  5
14D
100
AcDbEntity
  8
0
 62
7
420
16777215
370
25
 48
1.0
  6
Continuous
100
AcDbLine
 10
263.70000125247151
 20
7.9999998593311261
 30
0.0
 11
265.02762072297151
 21
7.9999998593311261
 31
0.0
  0
ARC
  5
14E
100
AcDbEntity
  8
0
 62
7
420
16777215
370
25
 48
1.0
  6
Continuous
100
AcDbCircle
 10
263.70000125247151
 20
9.1999998593312853
 30
0.0
 40
1.2000000000000031
100
AcDbArc
 50
180.0
 51
270.0
  0
LINE
  5
14F
100
AcDbEntity
  8
0
 62
7
420
16777215
370
25
 48
1.0
  6
Continuous
100
AcDbLine
 10
262.50000125247158
 20
18.799999859331251
 30
0.0
 11
262.50000125247158
 21
9.1999998593312853
 31
0.0
  0
ARC
  5
150
100
AcDbEntity
  8
0
 62
7
420
16777215
370
25
 48
1.0
  6
Continuous
100
AcDbCircle
 10
271.20000125247151
 20
18.799999859331251
 30
0.0
 40
1.2000000000000031
100
AcDbArc
 50
90.0
 51
180.0
  0
LINE
  5
151
100
AcDbEntity
  8
0
 62
7
420
16777215
370
25
 48
1.0
  6
Continuous
100
AcDbLine
 10
272.52762072297151
 20
19.99999985933129
 30
0.0
 11
271.20000125247151
 21
19.99999985933129
 31
0.0
  0
ARC
  5
152
100
AcDbEntity
  8
0
 62
7
420
16777215
370
25
 48
1.0
  6
Continuous
100
AcDbCircle
 10
272.52762072297151
 20
20.599999859331319
 30
0.0
 40
0.5999999999999996
100
AcDbArc
 50
270.0
 51
319.99479911509968
  0
ARC
  5
153
100
AcDbEntity
  8
0
 62
7
420
16777215
370
25
 48
1.0
  6
Continuous
100
AcDbCircle
 10
273.6000012524716
 20
19.699999859331282
 30
0.0
 40
0.8000000000000076
100
AcDbArc
 50
220.0052008849004
 51
139.99479911509962
  0
ARC
  5
154
100
AcDbEntity
  8
0
 62
7
420
16777215
370
25
 48
1.0
  6
Continuous
100
AcDbCircle
 10
272.52762072297151
 20
18.799999859331251
 30
0.0
 40
0.5999999999999996
100
AcDbArc
 50
40.00520088490039
 51
90.0
  0
LINE
  5
155
100
AcDbEntity
  8
0
 62
7
420
16777215
370
25
 48
1.0
  6
Continuous
100
AcDbLine
 10
271.20000125247151
 20
19.39999985933127
 30
0.0
 11
272.52762072297151
 21
19.39999985933127
 31
0.0
  0
ARC
  5
156
100
AcDbEntity
  8
0
 62
7
420
16777215
370
25
 48
1.0
  6
Continuous
100
AcDbCircle
 10
271.20000125247151
 20
18.799999859331251
 30
0.0
 40
0.6000000000000032
100
AcDbArc
 50
90.0
 51
180.0
  0
LINE
  5
157
100
AcDbEntity
  8
0
 62
7
420
16777215
370
25
 48
1.0
  6
Continuous
100
AcDbLine
 10
270.6000012524716
 20
9.1999998593312853
 30
0.0
 11
270.6000012524716
 21
18.799999859331251
 31
0.0
  0
ARC
  5
158
100
AcDbEntity
  8
0
 62
7
420
16777215
370
25
 48
1.0
  6
Continuous
100
AcDbCircle
 10
271.20000125247151
 20
9.1999998593312853
 30
0.0
 40
0.5999999999999996
100
AcDbArc
 50
180.0
 51
270.0
  0
LINE
  5
159
100
AcDbEntity
  8
0
 62
7
420
16777215
370
25
 48
1.0
  6
Continuous
100
AcDbLine
 10
272.52762072297151
 20
8.5999998593313194
 30
0.0
 11
271.20000125247151
 21
8.5999998593313194
 31
0.0
  0
ARC
  5
15A
100
AcDbEntity
  8
0
 62
7
420
16777215
370
25
 48
1.0
  6
Continuous
100
AcDbCircle
 10
272.52762072297151
 20
9.1999998593312853
 30
0.0
 40
0.5999999999999996
100
AcDbArc
 50
270.0
 51
319.99479911509968
  0
ARC
  5
15B
100
AcDbEntity
  8
0
 62
7
420
16777215
370
25
 48
1.0
  6
Continuous
100
AcDbCircle
 10
273.6000012524716
 20
8.2999998593312512
 30
0.0
 40
0.8000000000000082
100
AcDbArc
 50
220.0052008849004
 51
139.99479911509962
  0
ARC
  5
15C
100
AcDbEntity
  8
0
 62
7
420
16777215
370
25
 48
1.0
  6
Continuous
100
AcDbCircle
 10
272.52762072297151
 20
7.399999859331273
 30
0.0
 40
0.5999999999999996
100
AcDbArc
 50
40.00520088490039
 51
90.0
  0
LINE
  5
15D
100
AcDbEntity
  8
0
 62
7
420
16777215
370
25
 48
1.0
  6
Continuous
100
AcDbLine
 10
271.20000125247151
 20
7.9999998593311261
 30
0.0
 11
272.52762072297151
 21
7.9999998593311261
 31
0.0
  0
ARC
  5
15E
100
AcDbEntity
  8
0
 62
7
420
16777215
370
25
 48
1.0
  6
Continuous
100
AcDbCircle
 10
271.20000125247151
 20
9.1999998593312853
 30
0.0
 40
1.2000000000000031
100
AcDbArc
 50
180.0
 51
270.0
  0
LINE
  5
15F
100
AcDbEntity
  8
0
 62
7
420
16777215
370
25
 48
1.0
  6
Continuous
100
AcDbLine
 10
270.00000125247141
 20
18.799999859331251
 30
0.0
 11
270.00000125247141
 21
9.1999998593312853
 31
0.0
  0
ARC
  5
160
100
AcDbEntity
  8
0
 62
7
420
16777215
370
25
 48
1.0
  6
Continuous
100
AcDbCircle
 10
278.70000125247162
 20
18.799999859331251
 30
0.0
 40
1.2000000000000031
100
AcDbArc
 50
90.0
 51
180.0
  0
LINE
  5
161
100
AcDbEntity
  8
0
 62
7
420
16777215
370
25
 48
1.0
  6
Continuous
100
AcDbLine
 10
280.02762072297162
 20
19.99999985933129
 30
0.0
 11
278.70000125247162
 21
19.99999985933129
 31
0.0
  0
ARC
  5
162
100
AcDbEntity
  8
0
 62
7
420
16777215
370
25
 48
1.0
  6
Continuous
100
AcDbCircle
 10
280.02762072297162
 20
20.599999859331319
 30
0.0
 40
0.6000000000000039
100
AcDbArc
 50
270.0
 51
319.99479911509968
  0
ARC
  5
163
100
AcDbEntity
  8
0
 62
7
420
16777215
370
25
 48
1.0
  6
Continuous
100
AcDbCircle
 10
281.1000012524716
 20
19.699999859331282
 30
0.0
 40
0.7999999999999971
100
AcDbArc
 50
220.0052008849004
 51
139.99479911509962
  0
ARC
  5
164
100
AcDbEntity
  8
0
 62
7
420
16777215
370
25
 48
1.0
  6
Continuous
100
AcDbCircle
 10
280.02762072297162
 20
18.799999859331251
 30
0.0
 40
0.6000000000000039
100
AcDbArc
 50
40.00520088490039
 51
90.0
  0
LINE
  5
165
100
AcDbEntity
  8
0
 62
7
420
16777215
370
25
 48
1.0
  6
Continuous
100
AcDbLine
 10
278.70000125247162
 20
19.39999985933127
 30
0.0
 11
280.02762072297162
 21
19.39999985933127
 31
0.0
  0
ARC
  5
166
100
AcDbEntity
  8
0
 62
7
420
16777215
370
25
 48
1.0
  6
Continuous
100
AcDbCircle
 10
278.70000125247162
 20
18.799999859331251
 30
0.0
 40
0.6000000000000088
100
AcDbArc
 50
90.0
 51
180.0
  0
LINE
  5
167
100
AcDbEntity
  8
0
 62
7
420
16777215
370
25
 48
1.0
  6
Continuous
100
AcDbLine
 10
278.1000012524716
 20
9.1999998593312853
 30
0.0
 11
278.1000012524716
 21
18.799999859331251
 31
0.0
  0
ARC
  5
168
100
AcDbEntity
  8
0
 62
7
420
16777215
370
25
 48
1.0
  6
Continuous
100
AcDbCircle
 10
278.70000125247162
 20
9.1999998593312853
 30
0.0
 40
0.6000000000000088
100
AcDbArc
 50
180.0
 51
270.0
  0
LINE
  5
169
100
AcDbEntity
  8
0
 62
7
420
16777215
370
25
 48
1.0
  6
Continuous
100
AcDbLine
 10
280.02762072297162
 20
8.5999998593313194
 30
0.0
 11
278.70000125247162
 21
8.5999998593313194
 31
0.0
  0
ARC
  5
16A
100
AcDbEntity
  8
0
 62
7
420
16777215
370
25
 48
1.0
  6
Continuous
100
AcDbCircle
 10
280.02762072297162
 20
9.1999998593312853
 30
0.0
 40
0.6000000000000039
100
AcDbArc
 50
270.0
 51
319.99479911509968
  0
ARC
  5
16B
100
AcDbEntity
  8
0
 62
7
420
16777215
370
25
 48
1.0
  6
Continuous
100
AcDbCircle
 10
281.1000012524716
 20
8.2999998593312512
 30
0.0
 40
0.7999999999999976
100
AcDbArc
 50
220.0052008849004
 51
139.99479911509962
  0
ARC
  5
16C
100
AcDbEntity
  8
0
 62
7
420
16777215
370
25
 48
1.0
  6
Continuous
100
AcDbCircle
 10
280.02762072297162
 20
7.399999859331273
 30
0.0
 40
0.6000000000000032
100
AcDbArc
 50
40.00520088490039
 51
90.0
  0
LINE
  5
16D
100
AcDbEntity
  8
0
 62
7
420
16777215
370
25
 48
1.0
  6
Continuous
100
AcDbLine
 10
278.70000125247162
 20
7.9999998593311261
 30
0.0
 11
280.02762072297162
 21
7.9999998593311261
 31
0.0
  0
ARC
  5
16E
100
AcDbEntity
  8
0
 62
7
420
16777215
370
25
 48
1.0
  6
Continuous
100
AcDbCircle
 10
278.70000125247162
 20
9.1999998593312853
 30
0.0
 40
1.2000000000000031
100
AcDbArc
 50
180.0
 51
270.0
  0
LINE
  5
16F
100
AcDbEntity
  8
0
 62
7
420
16777215
370
25
 48
1.0
  6
Continuous
100
AcDbLine
 10
277.50000125247158
 20
18.799999859331251
 30
0.0
 11
277.50000125247158
 21
9.1999998593312853
 31
0.0
  0
ARC
  5
170
100
AcDbEntity
  8
0
 62
7
420
16777215
370
25
 48
1.0
  6
Continuous
100
AcDbCircle
 10
286.20000125247151
 20
18.799999859331251
 30
0.0
 40
1.1999999999999991
100
AcDbArc
 50
90.0
 51
180.0
  0
LINE
  5
171
100
AcDbEntity
  8
0
 62
7
420
16777215
370
25
 48
1.0
  6
Continuous
100
AcDbLine
 10
287.52762072297151
 20
19.99999985933129
 30
0.0
 11
286.20000125247151
 21
19.99999985933129
 31
0.0
  0
ARC
  5
172
100
AcDbEntity
  8
0
 62
7
420
16777215
370
25
 48
1.0
  6
Continuous
100
AcDbCircle
 10
287.52762072297151
 20
20.599999859331319
 30
0.0
 40
0.5999999999999996
100
AcDbArc
 50
270.0
 51
319.99479911509968
  0
ARC
  5
173
100
AcDbEntity
  8
0
 62
7
420
16777215
370
25
 48
1.0
  6
Continuous
100
AcDbCircle
 10
288.6000012524716
 20
19.699999859331282
 30
0.0
 40
0.8000000000000076
100
AcDbArc
 50
220.0052008849004
 51
139.99479911509962
  0
ARC
  5
174
100
AcDbEntity
  8
0
 62
7
420
16777215
370
25
 48
1.0
  6
Continuous
100
AcDbCircle
 10
287.52762072297151
 20
18.799999859331251
 30
0.0
 40
0.5999999999999996
100
AcDbArc
 50
40.00520088490039
 51
90.0
  0
LINE
  5
175
100
AcDbEntity
  8
0
 62
7
420
16777215
370
25
 48
1.0
  6
Continuous
100
AcDbLine
 10
286.20000125247151
 20
19.39999985933127
 30
0.0
 11
287.52762072297151
 21
19.39999985933127
 31
0.0
  0
ARC
  5
176
100
AcDbEntity
  8
0
 62
7
420
16777215
370
25
 48
1.0
  6
Continuous
100
AcDbCircle
 10
286.20000125247151
 20
18.799999859331251
 30
0.0
 40
0.6000000000000032
100
AcDbArc
 50
90.0
 51
180.0
  0
LINE
  5
177
100
AcDbEntity
  8
0
 62
7
420
16777215
370
25
 48
1.0
  6
Continuous
100
AcDbLine
 10
285.6000012524716
 20
9.1999998593312853
 30
0.0
 11
285.6000012524716
 21
18.799999859331251
 31
0.0
  0
ARC
  5
178
100
AcDbEntity
  8
0
 62
7
420
16777215
370
25
 48
1.0
  6
Continuous
100
AcDbCircle
 10
286.20000125247151
 20
9.1999998593312853
 30
0.0
 40
0.5999999999999996
100
AcDbArc
 50
180.0
 51
270.0
  0
LINE
  5
179
100
AcDbEntity
  8
0
 62
7
420
16777215
370
25
 48
1.0
  6
Continuous
100
AcDbLine
 10
287.52762072297151
 20
8.5999998593313194
 30
0.0
 11
286.20000125247151
 21
8.5999998593313194
 31
0.0
  0
ARC
  5
17A
100
AcDbEntity
  8
0
 62
7
420
16777215
370
25
 48
1.0
  6
Continuous
100
AcDbCircle
 10
287.52762072297151
 20
9.1999998593312853
 30
0.0
 40
0.5999999999999996
100
AcDbArc
 50
270.0
 51
319.99479911509968
  0
ARC
  5
17B
100
AcDbEntity
  8
0
 62
7
420
16777215
370
25
 48
1.0
  6
Continuous
100
AcDbCircle
 10
288.6000012524716
 20
8.2999998593312512
 30
0.0
 40
0.8000000000000082
100
AcDbArc
 50
220.0052008849004
 51
139.99479911509962
  0
ARC
  5
17C
100
AcDbEntity
  8
0
 62
7
420
16777215
370
25
 48
1.0
  6
Continuous
100
AcDbCircle
 10
287.52762072297151
 20
7.399999859331273
 30
0.0
 40
0.5999999999999996
100
AcDbArc
 50
40.00520088490039
 51
90.0
  0
LINE
  5
17D
100
AcDbEntity
  8
0
 62
7
420
16777215
370
25
 48
1.0
  6
Continuous
100
AcDbLine
 10
286.20000125247151
 20
7.9999998593311261
 30
0.0
 11
287.52762072297151
 21
7.9999998593311261
 31
0.0
  0
ARC
  5
17E
100
AcDbEntity
  8
0
 62
7
420
16777215
370
25
 48
1.0
  6
Continuous
100
AcDbCircle
 10
286.20000125247151
 20
9.1999998593312853
 30
0.0
 40
1.2000000000000011
100
AcDbArc
 50
180.0
 51
270.0
  0
LINE
  5
17F
100
AcDbEntity
  8
0
 62
7
420
16777215
370
25
 48
1.0
  6
Continuous
100
AcDbLine
 10
285.00000125247158
 20
18.799999859331251
 30
0.0
 11
285.00000125247158
 21
9.1999998593312853
 31
0.0
  0
ARC
  5
180
100
AcDbEntity
  8
0
 62
7
420
16777215
370
25
 48
1.0
  6
Continuous
100
AcDbCircle
 10
293.7000012524714
 20
18.799999859331251
 30
0.0
 40
1.1999999999999991
100
AcDbArc
 50
90.0
 51
180.0
  0
LINE
  5
181
100
AcDbEntity
  8
0
 62
7
420
16777215
370
25
 48
1.0
  6
Continuous
100
AcDbLine
 10
295.02762072297139
 20
19.99999985933129
 30
0.0
 11
293.7000012524714
 21
19.99999985933129
 31
0.0
  0
ARC
  5
182
100
AcDbEntity
  8
0
 62
7
420
16777215
370
25
 48
1.0
  6
Continuous
100
AcDbCircle
 10
295.02762072297139
 20
20.599999859331319
 30
0.0
 40
0.6000000000000039
100
AcDbArc
 50
270.0
 51
319.99479911509968
  0
ARC
  5
183
100
AcDbEntity
  8
0
 62
7
420
16777215
370
25
 48
1.0
  6
Continuous
100
AcDbCircle
 10
296.1000012524716
 20
19.699999859331282
 30
0.0
 40
0.7999999999999971
100
AcDbArc
 50
220.0052008849004
 51
139.99479911509962
  0
ARC
  5
184
100
AcDbEntity
  8
0
 62
7
420
16777215
370
25
 48
1.0
  6
Continuous
100
AcDbCircle
 10
295.02762072297139
 20
18.799999859331251
 30
0.0
 40
0.6000000000000039
100
AcDbArc
 50
40.00520088490039
 51
90.0
  0
LINE
  5
185
100
AcDbEntity
  8
0
 62
7
420
16777215
370
25
 48
1.0
  6
Continuous
100
AcDbLine
 10
293.7000012524714
 20
19.39999985933127
 30
0.0
 11
295.02762072297139
 21
19.39999985933127
 31
0.0
  0
ARC
  5
186
100
AcDbEntity
  8
0
 62
7
420
16777215
370
25
 48
1.0
  6
Continuous
100
AcDbCircle
 10
293.7000012524714
 20
18.799999859331251
 30
0.0
 40
0.6000000000000032
100
AcDbArc
 50
90.0
 51
180.0
  0
LINE
  5
187
100
AcDbEntity
  8
0
 62
7
420
16777215
370
25
 48
1.0
  6
Continuous
100
AcDbLine
 10
293.1000012524716
 20
9.1999998593312853
 30
0.0
 11
293.1000012524716
 21
18.799999859331251
 31
0.0
  0
ARC
  5
188
100
AcDbEntity
  8
0
 62
7
420
16777215
370
25
 48
1.0
  6
Continuous
100
AcDbCircle
 10
293.7000012524714
 20
9.1999998593312853
 30
0.0
 40
0.5999999999999996
100
AcDbArc
 50
180.0
 51
270.0
  0
LINE
  5
189
100
AcDbEntity
  8
0
 62
7
420
16777215
370
25
 48
1.0
  6
Continuous
100
AcDbLine
 10
295.02762072297139
 20
8.5999998593313194
 30
0.0
 11
293.7000012524714
 21
8.5999998593313194
 31
0.0
  0
ARC
  5
18A
100
AcDbEntity
  8
0
 62
7
420
16777215
370
25
 48
1.0
  6
Continuous
100
AcDbCircle
 10
295.02762072297139
 20
9.1999998593312853
 30
0.0
 40
0.6000000000000039
100
AcDbArc
 50
270.0
 51
319.99479911509968
  0
ARC
  5
18B
100
AcDbEntity
  8
0
 62
7
420
16777215
370
25
 48
1.0
  6
Continuous
100
AcDbCircle
 10
296.1000012524716
 20
8.2999998593312512
 30
0.0
 40
0.7999999999999976
100
AcDbArc
 50
220.0052008849004
 51
139.99479911509962
  0
ARC
  5
18C
100
AcDbEntity
  8
0
 62
7
420
16777215
370
25
 48
1.0
  6
Continuous
100
AcDbCircle
 10
295.02762072297139
 20
7.399999859331273
 30
0.0
 40
0.6000000000000032
100
AcDbArc
 50
40.00520088490039
 51
90.0
  0
LINE
  5
18D
100
AcDbEntity
  8
0
 62
7
420
16777215
370
25
 48
1.0
  6
Continuous
100
AcDbLine
 10
293.7000012524714
 20
7.9999998593311261
 30
0.0
 11
295.02762072297139
 21
7.9999998593311261
 31
0.0
  0
ARC
  5
18E
100
AcDbEntity
  8
0
 62
7
420
16777215
370
25
 48
1.0
  6
Continuous
100
AcDbCircle
 10
293.7000012524714
 20
9.1999998593312853
 30
0.0
 40
1.2000000000000011
100
AcDbArc
 50
180.0
 51
270.0
  0
LINE
  5
18F
100
AcDbEntity
  8
0
 62
7
420
16777215
370
25
 48
1.0
  6
Continuous
100
AcDbLine
 10
292.50000125247141
 20
18.799999859331251
 30
0.0
 11
292.50000125247141
 21
9.1999998593312853
 31
0.0
  0
ENDBLK
  5
190
100
AcDbEntity
  8
0
100
AcDbBlockEnd
  0
BLOCK
  5
191
100
AcDbEntity
  8
0
100
AcDbBlockBegin
  2
A$C918d9ec4
 70
0
 10
0.0
 20
0.0
 30
0.0
  3
A$C918d9ec4
  1

  0
ARC
  5
192
100
AcDbEntity
  8
0
 62
256
370
-1
 48
1.0
  6
Continuous
100
AcDbCircle
 10
-0.0000009882066934
 20
11.999998590900759
 30
0.0
 40
3.0
100
AcDbArc
 50
270.0
 51
0.0
  0
ARC
  5
193
100
AcDbEntity
  8
0
 62
256
370
-1
 48
1.0
  6
Continuous
100
AcDbCircle
 10
-0.0000009882066934
 20
-0.000000112698217
 30
0.0
 40
3.0
100
AcDbArc
 50
0.0
 51
90.0
  0
ENDBLK
  5
194
100
AcDbEntity
  8
0
100
AcDbBlockEnd
  0
BLOCK
  5
195
100
AcDbEntity
  8
0
100
AcDbBlockBegin
  2
A$C76c0349e
 70
0
 10
0.0
 20
0.0
 30
0.0
  3
A$C76c0349e
  1

  0
ARC
  5
196
100
AcDbEntity
  8
0
 62
256
370
-1
 48
1.0
  6
Continuous
100
AcDbCircle
 10
2.9999999154290431
 20
-0.000000112698217
 30
0.0
 40
3.0
100
AcDbArc
 50
90.0
 51
180.0
  0
ARC
  5
197
100
AcDbEntity
  8
0
 62
256
370
-1
 48
1.0
  6
Continuous
100
AcDbCircle
 10
2.9999999154290431
 20
11.999998590900759
 30
0.0
 40
3.0
100
AcDbArc
 50
180.0
 51
270.0
  0
ENDBLK
  5
198
100
AcDbEntity
  8
0
100
AcDbBlockEnd
  0
BLOCK
  5
199
100
AcDbEntity
  8
0
100
AcDbBlockBegin
  2
3
 70
0
 10
0.0
 20
0.0
 30
0.0
  3
3
  1

  0
LWPOLYLINE
  5
19A
100
AcDbEntity
  8
0
 62
256
370
-1
 48
1.0
  6
BYLAYER
100
AcDbPolyline
 90
40
 70
1
 10
-97.0
 20
116.87284749449201
 42
-0.4142135623730951
 10
-100.0
 20
119.87284749449201
 10
-100.0
 20
124.3728474944933
 42
0.9999983442785064
 10
-100.0
 20
126.1728474944908
 10
-100.0
 20
137.57284749449209
 42
1.0
 10
-100.0
 20
139.37284749449211
 10
-100.0
 20
143.87284749449199
 42
-0.4142135623730985
 10
-96.999999999999943
 20
146.87284749449199
 10
-84.900000000000006
 20
146.87284749449211
 42
-0.4142135623730951
 10
-81.899999999999963
 20
143.87284749449199
 10
-81.899999999999963
 20
138.47284749449199
 42
1.0
 10
-80.09999999999998
 20
138.47284749449199
 10
-80.099999999999966
 20
143.87284749449211
 42
-0.4142135623730951
 10
-77.099999999999966
 20
146.87284749449211
 10
77.099999999999966
 20
146.87284749449211
 42
-0.4142135623730951
 10
80.09999999999998
 20
143.87284749449211
 10
80.09999999999998
 20
138.47284749449199
 42
1.0
 10
81.900000000000006
 20
138.47284749449199
 10
81.899999999999963
 20
143.87284749449199
 42
-0.4142135623730968
 10
84.900000000000006
 20
146.87284749449211
 10
96.999999999999943
 20
146.87284749449211
 42
-0.4142135623730985
 10
100.0
 20
143.87284749449199
 10
100.0
 20
139.37284749449211
 42
1.0
 10
100.0
 20
137.57284749449209
 10
100.0
 20
126.1728474944908
 42
0.9999983442785064
 10
100.0
 20
124.3728474944933
 10
100.0
 20
119.87284749449201
 42
-0.4142135623730951
 10
97.0
 20
116.87284749449201
 10
84.900000000000006
 20
116.87284749449201
 42
-0.4142135623730951
 10
81.899999999999963
 20
119.87284749449201
 10
81.899999999999963
 20
125.2728474944921
 42
1.0
 10
80.09999999999998
 20
125.2728474944921
 10
80.09999999999998
 20
119.87284749449201
 42
-0.4142135623730951
 10
77.099999999999966
 20
116.87284749449201
 10
-77.099999999999966
 20
116.87284749449201
 42
-0.4142135623730951
 10
-80.09999999999998
 20
119.87284749449201
 10
-80.09999999999998
 20
125.2728474944921
 42
1.0
 10
-81.899999999999963
 20
125.2728474944921
 10
-81.899999999999963
 20
119.87284749449201
 42
-0.4142135623730951
 10
-84.900000000000006
 20
116.87284749449201
  0
ENDBLK
  5
19B
100
AcDbEntity
  8
0
100
AcDbBlockEnd
  0
ENDSEC
  0
SECTION
  2
ENTITIES
  0
LINE
  5
19C
100
AcDbEntity
  8
0
 62
256
370
-1
 48
1.0
  6
BYLAYER
100
AcDbLine
 10
235.28522472233911
 20
129.4456028661466
 30
0.0
 11
245.28522472233911
 21
129.4456028661466
 31
0.0
  0
ARC
  5
19D
100
AcDbEntity
  8
0
 62
256
370
-1
 48
1.0
  6
BYLAYER
100
AcDbCircle
 10
245.28522472233911
 20
127.44560286614659
 30
0.0
 40
1.999999999999992
100
AcDbArc
 50
0.0
 51
90.0
  0
LINE
  5
19E
100
AcDbEntity
  8
0
 62
256
370
-1
 48
1.0
  6
BYLAYER
100
AcDbLine
 10
247.28522472233911
 20
127.44560286614659
 30
0.0
 11
247.28522472233911
 21
125.4456041625476
 31
0.0
  0
ARC
  5
19F
100
AcDbEntity
  8
0
 62
256
370
-1
 48
1.0
  6
BYLAYER
100
AcDbCircle
 10
245.28522472233911
 20
125.4456041625476
 30
0.0
 40
1.999999999999992
100
AcDbArc
 50
270.0
 51
0.0
  0
LINE
  5
1A0
100
AcDbEntity
  8
0
 62
256
370
-1
 48
1.0
  6
BYLAYER
100
AcDbLine
 10
235.28522472233911
 20
123.4456041625476
 30
0.0
 11
245.28522472233911
 21
123.4456041625476
 31
0.0
  0
ARC
  5
1A1
100
AcDbEntity
  8
0
 62
256
370
-1
 48
1.0
  6
BYLAYER
100
AcDbCircle
 10
156.29195147486718
 20
125.4510244167449
 30
0.0
 40
1.999999999999992
100
AcDbArc
 50
180.0
 51
270.0
  0
LINE
  5
1A2
100
AcDbEntity
  8
0
 62
256
370
-1
 48
1.0
  6
BYLAYER
100
AcDbLine
 10
166.29195147486718
 20
123.4510244167449
 30
0.0
 11
156.29195147486718
 21
123.4510244167449
 31
0.0
  0
LINE
  5
1A3
100
AcDbEntity
  8
0
 62
256
370
-1
 48
1.0
  6
BYLAYER
100
AcDbLine
 10
86.289056625474345
 20
129.4168230763506
 30
0.0
 11
76.289056625474345
 21
129.4168230763506
 31
0.0
  0
ARC
  5
1A4
100
AcDbEntity
  8
0
 62
256
370
-1
 48
1.0
  6
BYLAYER
100
AcDbCircle
 10
76.289056625474345
 20
127.41682307635058
 30
0.0
 40
1.999999999999992
100
AcDbArc
 50
90.0
 51
180.0
  0
LINE
  5
1A5
100
AcDbEntity
  8
0
 62
256
370
-1
 48
1.0
  6
BYLAYER
100
AcDbLine
 10
74.289056625474345
 20
127.41682307635058
 30
0.0
 11
74.289056625474345
 21
125.41682437275159
 31
0.0
  0
ARC
  5
1A6
100
AcDbEntity
  8
0
 62
256
370
-1
 48
1.0
  6
BYLAYER
100
AcDbCircle
 10
76.289056625474345
 20
125.41682437275159
 30
0.0
 40
1.999999999999992
100
AcDbArc
 50
180.0
 51
270.0
  0
LINE
  5
1A7
100
AcDbEntity
  8
0
 62
256
370
-1
 48
1.0
  6
BYLAYER
100
AcDbLine
 10
86.289056625474345
 20
123.41682437275159
 30
0.0
 11
76.289056625474345
 21
123.41682437275159
 31
0.0
  0
LINE
  5
1A8
100
AcDbEntity
  8
0
 62
256
370
-1
 48
1.0
  6
BYLAYER
100
AcDbLine
 10
154.29195147486718
 20
127.45102312034389
 30
0.0
 11
154.29195147486718
 21
125.4510244167449
 31
0.0
  0
ARC
  5
1A9
100
AcDbEntity
  8
0
 62
256
370
-1
 48
1.0
  6
BYLAYER
100
AcDbCircle
 10
156.29195147486718
 20
127.45102312034389
 30
0.0
 40
1.999999999999992
100
AcDbArc
 50
90.0
 51
180.0
  0
LINE
  5
1AA
100
AcDbEntity
  8
0
 62
256
370
-1
 48
1.0
  6
BYLAYER
100
AcDbLine
 10
166.29195147486718
 20
129.4510231203439
 30
0.0
 11
156.29195147486718
 21
129.4510231203439
 31
0.0
  0
LINE
  5
1AB
100
AcDbEntity
  8
0
 62
256
370
-1
 48
1.0
  6
BYLAYER
100
AcDbLine
 10
315.294968358147
 20
129.44546152505671
 30
0.0
 11
325.294968358147
 21
129.44546152505671
 31
0.0
  0
ARC
  5
1AC
100
AcDbEntity
  8
0
 62
256
370
-1
 48
1.0
  6
BYLAYER
100
AcDbCircle
 10
325.294968358147
 20
127.4454615250567
 30
0.0
 40
1.9999999999999849
100
AcDbArc
 50
0.0000000000008142
 51
90.0
  0
LINE
  5
1AD
100
AcDbEntity
  8
0
 62
256
370
-1
 48
1.0
  6
BYLAYER
100
AcDbLine
 10
327.294968358147
 20
127.4454615250567
 30
0.0
 11
327.294968358147
 21
125.44546282145771
 31
0.0
  0
ARC
  5
1AE
100
AcDbEntity
  8
0
 62
256
370
-1
 48
1.0
  6
BYLAYER
100
AcDbCircle
 10
325.294968358147
 20
125.44546282145771
 30
0.0
 40
2.0
100
AcDbArc
 50
270.0
 51
0.0
  0
LINE
  5
1AF
100
AcDbEntity
  8
0
 62
256
370
-1
 48
1.0
  6
BYLAYER
100
AcDbLine
 10
325.294968358147
 20
123.44546282145771
 30
0.0
 11
315.294968358147
 21
123.44546282145771
 31
0.0
  0
ARC
  5
1B0
100
AcDbEntity
  8
0
 62
256
370
-1
 48
1.0
  6
Continuous
100
AcDbCircle
 10
86.289056625474345
 20
132.4168230763506
 30
0.0
 40
3.0
100
AcDbArc
 50
270.0
 51
0.0
  0
ARC
  5
1B1
100
AcDbEntity
  8
0
 62
256
370
-1
 48
1.0
  6
Continuous
100
AcDbCircle
 10
86.289056625474345
 20
120.41682437275159
 30
0.0
 40
3.0
100
AcDbArc
 50
0.0
 51
90.0
  0
ARC
  5
1B2
100
AcDbEntity
  8
0
 62
256
370
-1
 48
1.0
  6
Continuous
100
AcDbCircle
 10
166.29195147486718
 20
132.4510231203439
 30
0.0
 40
3.0
100
AcDbArc
 50
270.0
 51
0.0
  0
ARC
  5
1B3
100
AcDbEntity
  8
0
 62
256
370
-1
 48
1.0
  6
Continuous
100
AcDbCircle
 10
166.29195147486718
 20
120.4510244167449
 30
0.0
 40
3.0
100
AcDbArc
 50
0.0
 51
90.0
  0
ARC
  5
1B4
100
AcDbEntity
  8
0
 62
256
370
-1
 48
1.0
  6
Continuous
100
AcDbCircle
 10
235.28522472233911
 20
120.4456041625476
 30
0.0
 40
3.0
100
AcDbArc
 50
90.0
 51
180.0
  0
ARC
  5
1B5
100
AcDbEntity
  8
0
 62
256
370
-1
 48
1.0
  6
Continuous
100
AcDbCircle
 10
235.28522472233911
 20
132.4456028661466
 30
0.0
 40
3.0
100
AcDbArc
 50
180.0
 51
270.0
  0
ARC
  5
1B6
100
AcDbEntity
  8
0
 62
256
370
-1
 48
1.0
  6
Continuous
100
AcDbCircle
 10
315.294968358147
 20
120.44546282145771
 30
0.0
 40
3.0
100
AcDbArc
 50
90.0
 51
180.0
  0
ARC
  5
1B7
100
AcDbEntity
  8
0
 62
256
370
-1
 48
1.0
  6
Continuous
100
AcDbCircle
 10
315.294968358147
 20
132.44546152505671
 30
0.0
 40
3.0
100
AcDbArc
 50
180.0
 51
270.0
  0
LINE
  5
1B8
100
AcDbEntity
  8
0
 62
7
420
16777215
370
25
 48
1.0
  6
Continuous
100
AcDbLine
 10
2.7857431179895111
 20
70.821568452261445
 30
0.0
 11
18.840954648589388
 21
66.519587488261394
 31
0.0
  0
ARC
  5
1B9
100
AcDbEntity
  8
0
 62
7
420
16777215
370
25
 48
1.0
  6
Continuous
100
AcDbCircle
 10
19.617411783889331
 20
69.417364967161362
 30
0.0
 40
3.0000000000000209
100
AcDbArc
 50
255.00000000000193
 51
270.0
  0
LINE
  5
1BA
100
AcDbEntity
  8
0
 62
7
420
16777215
370
25
 48
1.0
  6
Continuous
100
AcDbLine
 10
19.617411783889331
 20
66.417364967161362
 30
0.0
 11
350.5622002532894
 21
66.417364967161319
 31
0.0
  0
LINE
  5
1BB
100
AcDbEntity
  8
0
 62
7
420
16777215
370
25
 48
1.0
  6
Continuous
100
AcDbLine
 10
350.5622002532894
 20
66.417364967161319
 30
0.0
 11
350.5622002532894
 21
64.817364967161353
 31
0.0
  0
ARC
  5
1BC
100
AcDbEntity
  8
0
 62
7
420
16777215
370
25
 48
1.0
  6
Continuous
100
AcDbCircle
 10
352.36220025328942
 20
64.817364967161353
 30
0.0
 40
1.7999999999999989
100
AcDbArc
 50
180.0
 51
270.0
  0
LINE
  5
1BD
100
AcDbEntity
  8
0
 62
7
420
16777215
370
25
 48
1.0
  6
Continuous
100
AcDbLine
 10
352.36220025328942
 20
63.017364967161342
 30
0.0
 11
358.76220025328928
 21
63.017364967161342
 31
0.0
  0
ARC
  5
1BE
100
AcDbEntity
  8
0
 62
7
420
16777215
370
25
 48
1.0
  6
Continuous
100
AcDbCircle
 10
358.76220025328928
 20
64.817364967161353
 30
0.0
 40
1.7999999999999989
100
AcDbArc
 50
270.0
 51
0.0
  0
LINE
  5
1BF
100
AcDbEntity
  8
0
 62
7
420
16777215
370
25
 48
1.0
  6
Continuous
100
AcDbLine
 10
360.56220025328929
 20
64.817364967161353
 30
0.0
 11
360.5622002532894
 21
89.217364967161387
 31
0.0
  0
ARC
  5
1C0
100
AcDbEntity
  8
0
 62
7
420
16777215
370
25
 48
1.0
  6
Continuous
100
AcDbCircle
 10
358.76220025328939
 20
89.217364967161387
 30
0.0
 40
1.7999999999999989
100
AcDbArc
 50
0.0
 51
90.0
  0
LINE
  5
1C1
100
AcDbEntity
  8
0
 62
7
420
16777215
370
25
 48
1.0
  6
Continuous
100
AcDbLine
 10
358.76220025328939
 20
91.017364967161512
 30
0.0
 11
352.36220025328942
 21
91.017364967161512
 31
0.0
  0
ARC
  5
1C2
100
AcDbEntity
  8
0
 62
7
420
16777215
370
25
 48
1.0
  6
Continuous
100
AcDbCircle
 10
352.36220025328942
 20
89.217364967161387
 30
0.0
 40
1.7999999999999989
100
AcDbArc
 50
90.0
 51
180.0
  0
LINE
  5
1C3
100
AcDbEntity
  8
0
 62
7
420
16777215
370
25
 48
1.0
  6
Continuous
100
AcDbLine
 10
350.5622002532894
 20
89.217364967161387
 30
0.0
 11
350.5622002532894
 21
87.617364967161365
 31
0.0
  0
LINE
  5
1C4
100
AcDbEntity
  8
0
 62
7
420
16777215
370
25
 48
1.0
  6
Continuous
100
AcDbLine
 10
350.5622002532894
 20
87.61736496716135
 30
0.0
 11
19.617411783889331
 21
87.617364967161407
 31
0.0
  0
ARC
  5
1C5
100
AcDbEntity
  8
0
 62
7
420
16777215
370
25
 48
1.0
  6
Continuous
100
AcDbCircle
 10
19.617411783889331
 20
84.617364967161393
 30
0.0
 40
3.0
100
AcDbArc
 50
90.0
 51
104.99999999999798
  0
LINE
  5
1C6
100
AcDbEntity
  8
0
 62
7
420
16777215
370
25
 48
1.0
  6
Continuous
100
AcDbLine
 10
18.840954648589388
 20
87.515142446061432
 30
0.0
 11
2.7857431179895111
 21
83.213161482061381
 31
0.0
  0
ARC
  5
1C7
100
AcDbEntity
  8
0
 62
7
420
16777215
370
25
 48
1.0
  6
Continuous
100
AcDbCircle
 10
3.5622002532895181
 20
80.315384003261386
 30
0.0
 40
3.0
100
AcDbArc
 50
104.99999999999798
 51
180.0
  0
LINE
  5
1C8
100
AcDbEntity
  8
0
 62
7
420
16777215
370
25
 48
1.0
  6
Continuous
100
AcDbLine
 10
0.5622002532893476
 20
80.315384003261386
 30
0.0
 11
0.5622002532893476
 21
73.719345931061426
 31
0.0
  0
ARC
  5
1C9
100
AcDbEntity
  8
0
 62
7
420
16777215
370
25
 48
1.0
  6
Continuous
100
AcDbCircle
 10
3.5622002532895181
 20
73.719345931061426
 30
0.0
 40
3.0000000000000009
100
AcDbArc
 50
180.0
 51
255.00000000000193
  0
ARC
  5
1CA
100
AcDbEntity
  8
0
 62
256
370
-1
 48
1.0
  6
BYLAYER
100
AcDbCircle
 10
3.8993742561449518
 20
36.799547285928327
 30
0.0
 40
3.0000000000000142
100
AcDbArc
 50
179.99999999999966
 51
269.99999999999977
  0
LINE
  5
1CB
100
AcDbEntity
  8
0
 62
256
370
-1
 48
1.0
  6
BYLAYER
100
AcDbLine
 10
0.899374256144938
 20
36.799547285928341
 30
0.0
 11
0.899374256144938
 21
41.299547285929563
 31
0.0
  0
ARC
  5
1CC
100
AcDbEntity
  8
0
 62
256
370
-1
 48
1.0
  6
BYLAYER
100
AcDbCircle
 10
0.8993727659943601
 20
42.19954728592834
 30
0.0
 40
0.9000000000000101
100
AcDbArc
 50
270.00009486593223
 51
89.999905134067845
  0
LINE
  5
1CD
100
AcDbEntity
  8
0
 62
256
370
-1
 48
1.0
  6
BYLAYER
100
AcDbLine
 10
0.899374256144938
 20
43.099547285927109
 30
0.0
 11
0.899374256144938
 21
54.49954728592833
 31
0.0
  0
ARC
  5
1CE
100
AcDbEntity
  8
0
 62
256
370
-1
 48
1.0
  6
BYLAYER
100
AcDbCircle
 10
0.899374256144938
 20
55.399547285928328
 30
0.0
 40
0.9000000000000056
100
AcDbArc
 50
270.0
 51
90.0
  0
LINE
  5
1CF
100
AcDbEntity
  8
0
 62
256
370
-1
 48
1.0
  6
BYLAYER
100
AcDbLine
 10
0.899374256144938
 20
56.299547285928341
 30
0.0
 11
0.8993742561449523
 21
60.799547285928277
 31
0.0
  0
ARC
  5
1D0
100
AcDbEntity
  8
0
 62
256
370
-1
 48
1.0
  6
BYLAYER
100
AcDbCircle
 10
3.8993742561449478
 20
60.799547285928277
 30
0.0
 40
2.999999999999996
100
AcDbArc
 50
89.999999999999389
 51
180.0
  0
LINE
  5
1D1
100
AcDbEntity
  8
0
 62
256
370
-1
 48
1.0
  6
BYLAYER
100
AcDbLine
 10
3.8993742561449798
 20
63.799547285928277
 30
0.0
 11
15.999374256144931
 21
63.799547285928369
 31
0.0
  0
ARC
  5
1D2
100
AcDbEntity
  8
0
 62
256
370
-1
 48
1.0
  6
BYLAYER
100
AcDbCircle
 10
15.9993742561449
 20
60.799547285928313
 30
0.0
 40
3.000000000000056
100
AcDbArc
 50
359.99999999999932
 51
89.999999999999446
  0
LINE
  5
1D3
100
AcDbEntity
  8
0
 62
256
370
-1
 48
1.0
  6
BYLAYER
100
AcDbLine
 10
18.999374256144961
 20
60.799547285928277
 30
0.0
 11
18.999374256144961
 21
55.399547285928328
 31
0.0
  0
ARC
  5
1D4
100
AcDbEntity
  8
0
 62
256
370
-1
 48
1.0
  6
BYLAYER
100
AcDbCircle
 10
19.899374256144959
 20
55.399547285928328
 30
0.0
 40
0.8999999999999985
100
AcDbArc
 50
180.0
 51
0.0
  0
LINE
  5
1D5
100
AcDbEntity
  8
0
 62
256
370
-1
 48
1.0
  6
BYLAYER
100
AcDbLine
 10
20.799374256144961
 20
55.399547285928328
 30
0.0
 11
20.799374256144969
 21
60.799547285928398
 31
0.0
  0
ARC
  5
1D6
100
AcDbEntity
  8
0
 62
256
370
-1
 48
1.0
  6
BYLAYER
100
AcDbCircle
 10
23.799374256144961
 20
60.799547285928377
 30
0.0
 40
2.9999999999999849
100
AcDbArc
 50
89.99999999999973
 51
179.99999999999966
  0
LINE
  5
1D7
100
AcDbEntity
  8
0
 62
256
370
-1
 48
1.0
  6
BYLAYER
100
AcDbLine
 10
23.799374256144969
 20
63.799547285928369
 30
0.0
 11
217.9903697274589
 21
62.950853458132158
 31
0.0
  0
ARC
  5
1D8
100
AcDbEntity
  8
0
 62
256
370
-1
 48
1.0
  6
BYLAYER
100
AcDbCircle
 10
217.9903697274589
 20
59.950853458132158
 30
0.0
 40
3.0
100
AcDbArc
 50
0.0
 51
90.0
  0
LINE
  5
1D9
100
AcDbEntity
  8
0
 62
256
370
-1
 48
1.0
  6
BYLAYER
100
AcDbLine
 10
220.99036972745901
 20
59.950853458132158
 30
0.0
 11
220.99036972745901
 21
54.550853458132103
 31
0.0
  0
ARC
  5
1DA
100
AcDbEntity
  8
0
 62
256
370
-1
 48
1.0
  6
BYLAYER
100
AcDbCircle
 10
221.89036972745899
 20
54.550853458132103
 30
0.0
 40
0.9000000000000341
100
AcDbArc
 50
180.0
 51
0.0
  0
LINE
  5
1DB
100
AcDbEntity
  8
0
 62
256
370
-1
 48
1.0
  6
BYLAYER
100
AcDbLine
 10
222.79036972745899
 20
54.550853458132103
 30
0.0
 11
222.79036972745899
 21
59.950853458132052
 31
0.0
  0
ARC
  5
1DC
100
AcDbEntity
  8
0
 62
256
370
-1
 48
1.0
  6
BYLAYER
100
AcDbCircle
 10
225.79036972745899
 20
59.950853458132073
 30
0.0
 40
3.000000000000056
100
AcDbArc
 50
90.0
 51
180.0000000000004
  0
LINE
  5
1DD
100
AcDbEntity
  8
0
 62
256
370
-1
 48
1.0
  6
BYLAYER
100
AcDbLine
 10
225.79036972745899
 20
62.95085345813213
 30
0.0
 11
237.8903697274589
 21
62.95085345813213
 31
0.0
  0
ARC
  5
1DE
100
AcDbEntity
  8
0
 62
256
370
-1
 48
1.0
  6
BYLAYER
100
AcDbCircle
 10
237.8903697274589
 20
59.95085345813208
 30
0.0
 40
3.000000000000056
100
AcDbArc
 50
359.99999999999932
 51
90.0
  0
LINE
  5
1DF
100
AcDbEntity
  8
0
 62
256
370
-1
 48
1.0
  6
BYLAYER
100
AcDbLine
 10
240.89036972745899
 20
59.950853458132052
 30
0.0
 11
240.89036972745899
 21
55.450853458132109
 31
0.0
  0
ARC
  5
1E0
100
AcDbEntity
  8
0
 62
256
370
-1
 48
1.0
  6
BYLAYER
100
AcDbCircle
 10
240.89036972745899
 20
54.550853458132103
 30
0.0
 40
0.9000000000000056
100
AcDbArc
 50
90.0
 51
270.0
  0
LINE
  5
1E1
100
AcDbEntity
  8
0
 62
256
370
-1
 48
1.0
  6
BYLAYER
100
AcDbLine
 10
240.89036972745899
 20
53.65085345813209
 30
0.0
 11
240.89036972745899
 21
42.250853458130877
 31
0.0
  0
ARC
  5
1E2
100
AcDbEntity
  8
0
 62
256
370
-1
 48
1.0
  6
BYLAYER
100
AcDbCircle
 10
240.8903712176095
 20
41.350853458132107
 30
0.0
 40
0.9000000000000101
100
AcDbArc
 50
90.000094865931615
 51
269.9999051340684
  0
LINE
  5
1E3
100
AcDbEntity
  8
0
 62
256
370
-1
 48
1.0
  6
BYLAYER
100
AcDbLine
 10
240.89036972745899
 20
40.450853458133317
 30
0.0
 11
240.89036972745899
 21
35.950853458132109
 31
0.0
  0
ARC
  5
1E4
100
AcDbEntity
  8
0
 62
256
370
-1
 48
1.0
  6
BYLAYER
100
AcDbCircle
 10
237.89036972745899
 20
35.950853458132109
 30
0.0
 40
3.0
100
AcDbArc
 50
270.0
 51
0.0
  0
LINE
  5
1E5
100
AcDbEntity
  8
0
 62
256
370
-1
 48
1.0
  6
BYLAYER
100
AcDbLine
 10
237.89036972745899
 20
32.950853458132109
 30
0.0
 11
225.79036972745899
 21
32.95085345813208
 31
0.0
  0
ARC
  5
1E6
100
AcDbEntity
  8
0
 62
256
370
-1
 48
1.0
  6
BYLAYER
100
AcDbCircle
 10
225.79036972745899
 20
35.950853458132102
 30
0.0
 40
3.0000000000000142
100
AcDbArc
 50
180.00000000000031
 51
270.0000000000004
  0
LINE
  5
1E7
100
AcDbEntity
  8
0
 62
256
370
-1
 48
1.0
  6
BYLAYER
100
AcDbLine
 10
222.79036972745899
 20
35.95085345813208
 30
0.0
 11
222.79036972745899
 21
41.3508534581321
 31
0.0
  0
ARC
  5
1E8
100
AcDbEntity
  8
0
 62
256
370
-1
 48
1.0
  6
BYLAYER
100
AcDbCircle
 10
221.89036972745899
 20
41.3508534581321
 30
0.0
 40
0.9000000000000056
100
AcDbArc
 50
0.0
 51
180.0
  0
LINE
  5
1E9
100
AcDbEntity
  8
0
 62
256
370
-1
 48
1.0
  6
BYLAYER
100
AcDbLine
 10
220.99036972745901
 20
41.3508534581321
 30
0.0
 11
220.99036972745901
 21
35.950853458132109
 31
0.0
  0
ARC
  5
1EA
100
AcDbEntity
  8
0
 62
256
370
-1
 48
1.0
  6
BYLAYER
100
AcDbCircle
 10
217.9903697274589
 20
35.950853458132102
 30
0.0
 40
3.0
100
AcDbArc
 50
270.0
 51
0.0000000000002735
  0
LINE
  5
1EB
100
AcDbEntity
  8
0
 62
256
370
-1
 48
1.0
  6
BYLAYER
100
AcDbLine
 10
217.9903697274589
 20
32.95085345813208
 30
0.0
 11
23.799374256144969
 21
33.799547285928313
 31
0.0
  0
ARC
  5
1EC
100
AcDbEntity
  8
0
 62
256
370
-1
 48
1.0
  6
BYLAYER
100
AcDbCircle
 10
23.799374256144979
 20
36.799547285928341
 30
0.0
 40
3.0000000000000209
100
AcDbArc
 50
179.9999999999998
 51
269.99999999999977
  0
LINE
  5
1ED
100
AcDbEntity
  8
0
 62
256
370
-1
 48
1.0
  6
BYLAYER
100
AcDbLine
 10
20.799374256144961
 20
36.799547285928341
 30
0.0
 11
20.799374256144961
 21
42.199547285928332
 31
0.0
  0
ARC
  5
1EE
100
AcDbEntity
  8
0
 62
256
370
-1
 48
1.0
  6
BYLAYER
100
AcDbCircle
 10
19.899374256144959
 20
42.199547285928332
 30
0.0
 40
0.8999999999999985
100
AcDbArc
 50
0.0
 51
180.0
  0
LINE
  5
1EF
100
AcDbEntity
  8
0
 62
256
370
-1
 48
1.0
  6
BYLAYER
100
AcDbLine
 10
18.999374256144961
 20
42.199547285928332
 30
0.0
 11
18.999374256144961
 21
36.799547285928313
 31
0.0
  0
ARC
  5
1F0
100
AcDbEntity
  8
0
 62
256
370
-1
 48
1.0
  6
BYLAYER
100
AcDbCircle
 10
15.999374256144939
 20
36.799547285928327
 30
0.0
 40
3.0000000000000142
100
AcDbArc
 50
269.99999999999977
 51
359.99999999999977
  0
LINE
  5
1F1
100
AcDbEntity
  8
0
 62
256
370
-1
 48
1.0
  6
BYLAYER
100
AcDbLine
 10
15.999374256144931
 20
33.799547285928313
 30
0.0
 11
3.899374256144938
 21
33.799547285928313
 31
0.0
  0
LINE
  5
1F2
100
AcDbEntity
  8
0
 62
256
370
-1
 48
1.0
  6
Continuous
100
AcDbLine
 10
52.292867114888388
 20
141.44511181010441
 30
0.0
 11
349.2928671148884
 21
141.44511181010441
 31
0.0
  0
LINE
  5
1F3
100
AcDbEntity
  8
0
 62
256
370
-1
 48
1.0
  6
BYLAYER
100
AcDbLine
 10
52.292867114888388
 20
141.44511181010441
 30
0.0
 11
5.792867114888395
 21
141.44511181010441
 31
0.0
  0
ARC
  5
1F4
100
AcDbEntity
  8
0
 62
256
370
-1
 48
1.0
  6
BYLAYER
100
AcDbCircle
 10
5.792867114888395
 20
136.44511181010441
 30
0.0
 40
5.0
100
AcDbArc
 50
90.0
 51
180.0
  0
LINE
  5
1F5
100
AcDbEntity
  8
0
 62
256
370
-1
 48
1.0
  6
BYLAYER
100
AcDbLine
 10
0.792867114888395
 20
136.44511181010441
 30
0.0
 11
0.792867114888395
 21
116.44511181010439
 31
0.0
  0
ARC
  5
1F6
100
AcDbEntity
  8
0
 62
256
370
-1
 48
1.0
  6
BYLAYER
100
AcDbCircle
 10
5.792867114888395
 20
116.44511181010439
 30
0.0
 40
5.0
100
AcDbArc
 50
180.0
 51
270.0
  0
LINE
  5
1F7
100
AcDbEntity
  8
0
 62
256
370
-1
 48
1.0
  6
BYLAYER
100
AcDbLine
 10
5.792867114888395
 20
111.44511181010439
 30
0.0
 11
395.7928671148884
 21
111.44511181010439
 31
0.0
  0
ARC
  5
1F8
100
AcDbEntity
  8
0
 62
256
370
-1
 48
1.0
  6
BYLAYER
100
AcDbCircle
 10
395.7928671148884
 20
116.44511181010439
 30
0.0
 40
5.0
100
AcDbArc
 50
270.0
 51
0.0
  0
LINE
  5
1F9
100
AcDbEntity
  8
0
 62
256
370
-1
 48
1.0
  6
BYLAYER
100
AcDbLine
 10
400.79286711488828
 20
116.44511181010439
 30
0.0
 11
400.79286711488828
 21
136.44511181010441
 31
0.0
  0
ARC
  5
1FA
100
AcDbEntity
  8
0
 62
256
370
-1
 48
1.0
  6
BYLAYER
100
AcDbCircle
 10
395.7928671148884
 20
136.44511181010441
 30
0.0
 40
5.0
100
AcDbArc
 50
0.0
 51
90.0
  0
LINE
  5
1FB
100
AcDbEntity
  8
0
 62
256
370
-1
 48
1.0
  6
BYLAYER
100
AcDbLine
 10
395.7928671148884
 20
141.44511181010441
 30
0.0
 11
349.29286711488862
 21
141.44511181010441
 31
0.0
  0
ARC
  5
1FC
100
AcDbEntity
  8
0
 62
256
370
-1
 48
1.0
  6
BYLAYER
100
AcDbCircle
 10
21.792867114888349
 20
116.69511181010439
 30
0.0
 40
0.8999999999999914
100
AcDbArc
 50
179.99999999999639
 51
359.99999999999733
  0
LINE
  5
1FD
100
AcDbEntity
  8
0
 62
256
370
-1
 48
1.0
  6
BYLAYER
100
AcDbLine
 10
20.892867114888361
 20
116.69511181010439
 30
0.0
 11
20.892867114888329
 21
136.19511181010449
 31
0.0
  0
ARC
  5
1FE
100
AcDbEntity
  8
0
 62
256
370
-1
 48
1.0
  6
BYLAYER
100
AcDbCircle
 10
21.79286711488837
 20
136.19511181010441
 30
0.0
 40
0.9000000000000341
100
AcDbArc
 50
359.99999999999642
 51
179.99999999999639
  0
LINE
  5
1FF
100
AcDbEntity
  8
0
 62
256
370
-1
 48
1.0
  6
BYLAYER
100
AcDbLine
 10
22.692867114888401
 20
136.19511181010429
 30
0.0
 11
22.692867114888351
 21
116.69511181010429
 31
0.0
  0
LINE
  5
200
100
AcDbEntity
  8
0
 62
256
370
-1
 48
1.0
  6
BYLAYER
100
AcDbLine
 10
5.89286711488836
 20
116.69511181010439
 30
0.0
 11
5.89286711488836
 21
136.19511181010441
 31
0.0
  0
ARC
  5
201
100
AcDbEntity
  8
0
 62
256
370
-1
 48
1.0
  6
BYLAYER
100
AcDbCircle
 10
6.7928671148883799
 20
136.19511181010441
 30
0.0
 40
0.9000000000000198
100
AcDbArc
 50
0.0
 51
180.0
  0
LINE
  5
202
100
AcDbEntity
  8
0
 62
256
370
-1
 48
1.0
  6
BYLAYER
100
AcDbLine
 10
7.6928671148883998
 20
136.19511181010441
 30
0.0
 11
7.6928671148883998
 21
116.69511181010439
 31
0.0
  0
ARC
  5
203
100
AcDbEntity
  8
0
 62
256
370
-1
 48
1.0
  6
BYLAYER
100
AcDbCircle
 10
6.7928671148883799
 20
116.69511181010439
 30
0.0
 40
0.9000000000000198
100
AcDbArc
 50
180.0
 51
0.0
  0
LINE
  5
204
100
AcDbEntity
  8
0
 62
256
370
-1
 48
1.0
  6
BYLAYER
100
AcDbLine
 10
7.6928671148883998
 20
136.19511181010441
 30
0.0
 11
7.6928671148883998
 21
116.69511181010439
 31
0.0
  0
ARC
  5
205
100
AcDbEntity
  8
0
 62
256
370
-1
 48
1.0
  6
BYLAYER
100
AcDbCircle
 10
6.7928671148883799
 20
116.69511181010439
 30
0.0
 40
0.9000000000000198
100
AcDbArc
 50
180.0
 51
0.0
  0
LINE
  5
206
100
AcDbEntity
  8
0
 62
256
370
-1
 48
1.0
  6
BYLAYER
100
AcDbLine
 10
5.89286711488836
 20
116.69511181010439
 30
0.0
 11
5.89286711488836
 21
136.19511181010441
 31
0.0
  0
ARC
  5
207
100
AcDbEntity
  8
0
 62
256
370
-1
 48
1.0
  6
BYLAYER
100
AcDbCircle
 10
6.7928671148883799
 20
136.19511181010441
 30
0.0
 40
0.9000000000000198
100
AcDbArc
 50
0.0
 51
180.0
  0
ARC
  5
208
100
AcDbEntity
  8
0
 62
256
370
-1
 48
1.0
  6
BYLAYER
100
AcDbCircle
 10
21.792867114888349
 20
116.69511181010439
 30
0.0
 40
0.8999999999999914
100
AcDbArc
 50
179.99999999999639
 51
359.99999999999733
  0
LINE
  5
209
100
AcDbEntity
  8
0
 62
256
370
-1
 48
1.0
  6
BYLAYER
100
AcDbLine
 10
20.892867114888361
 20
116.69511181010439
 30
0.0
 11
20.892867114888329
 21
136.19511181010449
 31
0.0
  0
ARC
  5
20A
100
AcDbEntity
  8
0
 62
256
370
-1
 48
1.0
  6
BYLAYER
100
AcDbCircle
 10
21.79286711488837
 20
136.19511181010441
 30
0.0
 40
0.9000000000000341
100
AcDbArc
 50
359.99999999999642
 51
179.99999999999639
  0
LINE
  5
20B
100
AcDbEntity
  8
0
 62
256
370
-1
 48
1.0
  6
BYLAYER
100
AcDbLine
 10
22.692867114888401
 20
136.19511181010429
 30
0.0
 11
22.692867114888351
 21
116.69511181010429
 31
0.0
  0
ARC
  5
20C
100
AcDbEntity
  8
0
 62
256
370
-1
 48
1.0
  6
BYLAYER
100
AcDbCircle
 10
394.7928671148884
 20
116.69511181010439
 30
0.0
 40
0.9000000000000341
100
AcDbArc
 50
179.99999999999639
 51
359.99999999999733
  0
LINE
  5
20D
100
AcDbEntity
  8
0
 62
256
370
-1
 48
1.0
  6
BYLAYER
100
AcDbLine
 10
393.89286711488842
 20
116.69511181010439
 30
0.0
 11
393.89286711488842
 21
136.19511181010441
 31
0.0
  0
ARC
  5
20E
100
AcDbEntity
  8
0
 62
256
370
-1
 48
1.0
  6
BYLAYER
100
AcDbCircle
 10
394.7928671148884
 20
136.19511181010441
 30
0.0
 40
0.8999999999999772
100
AcDbArc
 50
0.0
 51
180.0
  0
LINE
  5
20F
100
AcDbEntity
  8
0
 62
256
370
-1
 48
1.0
  6
BYLAYER
100
AcDbLine
 10
395.69286711488849
 20
136.19511181010441
 30
0.0
 11
395.69286711488849
 21
116.69511181010429
 31
0.0
  0
ARC
  5
210
100
AcDbEntity
  8
0
 62
256
370
-1
 48
1.0
  6
BYLAYER
100
AcDbCircle
 10
379.79286711488851
 20
116.69511181010439
 30
0.0
 40
0.9000000000000341
100
AcDbArc
 50
179.99999999999639
 51
359.99999999999733
  0
LINE
  5
211
100
AcDbEntity
  8
0
 62
256
370
-1
 48
1.0
  6
BYLAYER
100
AcDbLine
 10
378.89286711488842
 20
116.69511181010439
 30
0.0
 11
378.89286711488842
 21
136.19511181010441
 31
0.0
  0
ARC
  5
212
100
AcDbEntity
  8
0
 62
256
370
-1
 48
1.0
  6
BYLAYER
100
AcDbCircle
 10
379.79286711488851
 20
136.19511181010441
 30
0.0
 40
0.9000000000000341
100
AcDbArc
 50
0.0
 51
180.0
  0
LINE
  5
213
100
AcDbEntity
  8
0
 62
256
370
-1
 48
1.0
  6
BYLAYER
100
AcDbLine
 10
380.69286711488849
 20
136.19511181010441
 30
0.0
 11
380.69286711488849
 21
116.69511181010429
 31
0.0
  0
CIRCLE
  5
214
100
AcDbEntity
  8
0
 62
256
370
-1
 48
1.0
  6
Continuous
100
AcDbCircle
 10
14.462200253289319
 20
82.717364967161416
 30
0.0
 40
0.7999999999999921
  0
CIRCLE
  5
215
100
AcDbEntity
  8
0
 62
256
370
-1
 48
1.0
  6
Continuous
100
AcDbCircle
 10
14.462200253289319
 20
71.317364967161396
 30
0.0
 40
0.8000000000181616
  0
LINE
  5
216
100
AcDbEntity
  8
0
 62
256
370
-1
 48
1.0
  6
Continuous
100
AcDbLine
 10
15.26209985074237
 20
82.704690820466951
 30
0.0
 11
16.23449241576532
 21
82.689283579291981
 31
0.0
  0
LINE
  5
217
100
AcDbEntity
  8
0
 62
256
370
-1
 48
1.0
  6
Continuous
100
AcDbLine
 10
17.710728390713172
 20
81.18947183406749
 30
0.0
 11
17.710728390713172
 21
72.845258100255336
 31
0.0
  0
ARC
  5
218
100
AcDbEntity
  8
0
 62
256
370
-1
 48
1.0
  6
Continuous
100
AcDbCircle
 10
16.210728390713172
 20
81.18947183406749
 30
0.0
 40
1.5
100
AcDbArc
 50
0.0
 51
89.092243131069438
  0
LINE
  5
219
100
AcDbEntity
  8
0
 62
256
370
-1
 48
1.0
  6
Continuous
100
AcDbLine
 10
16.23449241576532
 20
71.345446355030845
 30
0.0
 11
15.26209985076053
 21
71.330039113856159
 31
0.0
  0
ARC
  5
21A
100
AcDbEntity
  8
0
 62
256
370
-1
 48
1.0
  6
Continuous
100
AcDbCircle
 10
16.210728390713172
 20
72.845258100255336
 30
0.0
 40
1.5
100
AcDbArc
 50
270.90775686893062
 51
0.0
  0
CIRCLE
  5
21B
100
AcDbEntity
  8
0
 62
256
370
-1
 48
1.0
  6
Continuous
100
AcDbCircle
 10
22.019181265005379
 20
82.717364967161416
 30
0.0
 40
0.7999999999999921
  0
CIRCLE
  5
21C
100
AcDbEntity
  8
0
 62
256
370
-1
 48
1.0
  6
Continuous
100
AcDbCircle
 10
22.019181265005379
 20
71.317364967161396
 30
0.0
 40
0.8000000000181616
  0
LINE
  5
21D
100
AcDbEntity
  8
0
 62
256
370
-1
 48
1.0
  6
Continuous
100
AcDbLine
 10
22.819080862458431
 20
82.704690820466951
 30
0.0
 11
23.791473427481371
 21
82.689283579291981
 31
0.0
  0
LINE
  5
21E
100
AcDbEntity
  8
0
 62
256
370
-1
 48
1.0
  6
Continuous
100
AcDbLine
 10
25.267709402429229
 20
81.18947183406749
 30
0.0
 11
25.267709402429229
 21
72.845258100255336
 31
0.0
  0
ARC
  5
21F
100
AcDbEntity
  8
0
 62
256
370
-1
 48
1.0
  6
Continuous
100
AcDbCircle
 10
23.767709402429229
 20
81.18947183406749
 30
0.0
 40
1.5
100
AcDbArc
 50
0.0
 51
89.092243131069438
  0
LINE
  5
220
100
AcDbEntity
  8
0
 62
256
370
-1
 48
1.0
  6
Continuous
100
AcDbLine
 10
23.791473427481371
 20
71.345446355030845
 30
0.0
 11
22.819080862476589
 21
71.330039113856159
 31
0.0
  0
ARC
  5
221
100
AcDbEntity
  8
0
 62
256
370
-1
 48
1.0
  6
Continuous
100
AcDbCircle
 10
23.767709402429229
 20
72.845258100255336
 30
0.0
 40
1.5
100
AcDbArc
 50
270.90775686893062
 51
0.0
  0
CIRCLE
  5
222
100
AcDbEntity
  8
0
 62
256
370
-1
 48
1.0
  6
Continuous
100
AcDbCircle
 10
29.57616227672144
 20
82.717364967161416
 30
0.0
 40
0.7999999999999921
  0
CIRCLE
  5
223
100
AcDbEntity
  8
0
 62
256
370
-1
 48
1.0
  6
Continuous
100
AcDbCircle
 10
29.57616227672144
 20
71.317364967161396
 30
0.0
 40
0.8000000000181616
  0
LINE
  5
224
100
AcDbEntity
  8
0
 62
256
370
-1
 48
1.0
  6
Continuous
100
AcDbLine
 10
30.376061874174489
 20
82.704690820466951
 30
0.0
 11
31.34845443919744
 21
82.689283579291981
 31
0.0
  0
LINE
  5
225
100
AcDbEntity
  8
0
 62
256
370
-1
 48
1.0
  6
Continuous
100
AcDbLine
 10
32.824690414145287
 20
81.18947183406749
 30
0.0
 11
32.824690414145287
 21
72.845258100255336
 31
0.0
  0
ARC
  5
226
100
AcDbEntity
  8
0
 62
256
370
-1
 48
1.0
  6
Continuous
100
AcDbCircle
 10
31.324690414145291
 20
81.18947183406749
 30
0.0
 40
1.5
100
AcDbArc
 50
0.0
 51
89.092243131069438
  0
LINE
  5
227
100
AcDbEntity
  8
0
 62
256
370
-1
 48
1.0
  6
Continuous
100
AcDbLine
 10
31.34845443919744
 20
71.345446355030845
 30
0.0
 11
30.376061874192661
 21
71.330039113856159
 31
0.0
  0
ARC
  5
228
100
AcDbEntity
  8
0
 62
256
370
-1
 48
1.0
  6
Continuous
100
AcDbCircle
 10
31.324690414145291
 20
72.845258100255336
 30
0.0
 40
1.5
100
AcDbArc
 50
270.90775686893062
 51
0.0
  0
CIRCLE
  5
229
100
AcDbEntity
  8
0
 62
256
370
-1
 48
1.0
  6
Continuous
100
AcDbCircle
 10
37.133143288437509
 20
82.717364967161416
 30
0.0
 40
0.7999999999999921
  0
CIRCLE
  5
22A
100
AcDbEntity
  8
0
 62
256
370
-1
 48
1.0
  6
Continuous
100
AcDbCircle
 10
37.133143288437509
 20
71.317364967161396
 30
0.0
 40
0.8000000000181616
  0
LINE
  5
22B
100
AcDbEntity
  8
0
 62
256
370
-1
 48
1.0
  6
Continuous
100
AcDbLine
 10
37.933042885890558
 20
82.704690820466951
 30
0.0
 11
38.905435450913501
 21
82.689283579291981
 31
0.0
  0
LINE
  5
22C
100
AcDbEntity
  8
0
 62
256
370
-1
 48
1.0
  6
Continuous
100
AcDbLine
 10
40.381671425861349
 20
81.18947183406749
 30
0.0
 11
40.381671425861349
 21
72.845258100255336
 31
0.0
  0
ARC
  5
22D
100
AcDbEntity
  8
0
 62
256
370
-1
 48
1.0
  6
Continuous
100
AcDbCircle
 10
38.881671425861363
 20
81.18947183406749
 30
0.0
 40
1.5
100
AcDbArc
 50
0.0
 51
89.092243131069438
  0
LINE
  5
22E
100
AcDbEntity
  8
0
 62
256
370
-1
 48
1.0
  6
Continuous
100
AcDbLine
 10
38.905435450913501
 20
71.345446355030845
 30
0.0
 11
37.933042885908719
 21
71.330039113856159
 31
0.0
  0
ARC
  5
22F
100
AcDbEntity
  8
0
 62
256
370
-1
 48
1.0
  6
Continuous
100
AcDbCircle
 10
38.881671425861363
 20
72.845258100255336
 30
0.0
 40
1.5
100
AcDbArc
 50
270.90775686893062
 51
0.0
  0
CIRCLE
  5
230
100
AcDbEntity
  8
0
 62
256
370
-1
 48
1.0
  6
Continuous
100
AcDbCircle
 10
44.690124300153549
 20
82.717364967161416
 30
0.0
 40
0.7999999999999921
  0
CIRCLE
  5
231
100
AcDbEntity
  8
0
 62
256
370
-1
 48
1.0
  6
Continuous
100
AcDbCircle
 10
44.690124300153549
 20
71.317364967161396
 30
0.0
 40
0.8000000000181616
  0
LINE
  5
232
100
AcDbEntity
  8
0
 62
256
370
-1
 48
1.0
  6
Continuous
100
AcDbLine
 10
45.490023897606598
 20
82.704690820466951
 30
0.0
 11
46.462416462629541
 21
82.689283579291981
 31
0.0
  0
LINE
  5
233
100
AcDbEntity
  8
0
 62
256
370
-1
 48
1.0
  6
Continuous
100
AcDbLine
 10
47.938652437577403
 20
81.18947183406749
 30
0.0
 11
47.938652437577403
 21
72.845258100255336
 31
0.0
  0
ARC
  5
234
100
AcDbEntity
  8
0
 62
256
370
-1
 48
1.0
  6
Continuous
100
AcDbCircle
 10
46.438652437577403
 20
81.18947183406749
 30
0.0
 40
1.5
100
AcDbArc
 50
0.0
 51
89.092243131069438
  0
LINE
  5
235
100
AcDbEntity
  8
0
 62
256
370
-1
 48
1.0
  6
Continuous
100
AcDbLine
 10
46.462416462629541
 20
71.345446355030845
 30
0.0
 11
45.490023897624773
 21
71.330039113856159
 31
0.0
  0
ARC
  5
236
100
AcDbEntity
  8
0
 62
256
370
-1
 48
1.0
  6
Continuous
100
AcDbCircle
 10
46.438652437577403
 20
72.845258100255336
 30
0.0
 40
1.5
100
AcDbArc
 50
270.90775686893062
 51
0.0
  0
CIRCLE
  5
237
100
AcDbEntity
  8
0
 62
256
370
-1
 48
1.0
  6
Continuous
100
AcDbCircle
 10
52.24710531186961
 20
82.717364967161416
 30
0.0
 40
0.7999999999999921
  0
CIRCLE
  5
238
100
AcDbEntity
  8
0
 62
256
370
-1
 48
1.0
  6
Continuous
100
AcDbCircle
 10
52.24710531186961
 20
71.317364967161396
 30
0.0
 40
0.8000000000181616
  0
LINE
  5
239
100
AcDbEntity
  8
0
 62
256
370
-1
 48
1.0
  6
Continuous
100
AcDbLine
 10
53.047004909322659
 20
82.704690820466951
 30
0.0
 11
54.019397474345602
 21
82.689283579291981
 31
0.0
  0
LINE
  5
23A
100
AcDbEntity
  8
0
 62
256
370
-1
 48
1.0
  6
Continuous
100
AcDbLine
 10
55.495633449293457
 20
81.18947183406749
 30
0.0
 11
55.495633449293457
 21
72.845258100255336
 31
0.0
  0
ARC
  5
23B
100
AcDbEntity
  8
0
 62
256
370
-1
 48
1.0
  6
Continuous
100
AcDbCircle
 10
53.995633449293457
 20
81.18947183406749
 30
0.0
 40
1.5
100
AcDbArc
 50
0.0
 51
89.092243131069438
  0
LINE
  5
23C
100
AcDbEntity
  8
0
 62
256
370
-1
 48
1.0
  6
Continuous
100
AcDbLine
 10
54.019397474345602
 20
71.345446355030845
 30
0.0
 11
53.047004909340828
 21
71.330039113856159
 31
0.0
  0
ARC
  5
23D
100
AcDbEntity
  8
0
 62
256
370
-1
 48
1.0
  6
Continuous
100
AcDbCircle
 10
53.995633449293457
 20
72.845258100255336
 30
0.0
 40
1.5
100
AcDbArc
 50
270.90775686893062
 51
0.0
  0
CIRCLE
  5
23E
100
AcDbEntity
  8
0
 62
256
370
-1
 48
1.0
  6
Continuous
100
AcDbCircle
 10
59.804086323585672
 20
82.717364967161416
 30
0.0
 40
0.7999999999999921
  0
CIRCLE
  5
23F
100
AcDbEntity
  8
0
 62
256
370
-1
 48
1.0
  6
Continuous
100
AcDbCircle
 10
59.804086323585672
 20
71.317364967161396
 30
0.0
 40
0.8000000000181616
  0
LINE
  5
240
100
AcDbEntity
  8
0
 62
256
370
-1
 48
1.0
  6
Continuous
100
AcDbLine
 10
60.603985921038721
 20
82.704690820466951
 30
0.0
 11
61.576378486061671
 21
82.689283579291981
 31
0.0
  0
LINE
  5
241
100
AcDbEntity
  8
0
 62
256
370
-1
 48
1.0
  6
Continuous
100
AcDbLine
 10
63.052614461009533
 20
81.18947183406749
 30
0.0
 11
63.052614461009533
 21
72.845258100255336
 31
0.0
  0
ARC
  5
242
100
AcDbEntity
  8
0
 62
256
370
-1
 48
1.0
  6
Continuous
100
AcDbCircle
 10
61.552614461009519
 20
81.18947183406749
 30
0.0
 40
1.5
100
AcDbArc
 50
0.0
 51
89.092243131069438
  0
LINE
  5
243
100
AcDbEntity
  8
0
 62
256
370
-1
 48
1.0
  6
Continuous
100
AcDbLine
 10
61.576378486061671
 20
71.345446355030845
 30
0.0
 11
60.603985921056889
 21
71.330039113856159
 31
0.0
  0
ARC
  5
244
100
AcDbEntity
  8
0
 62
256
370
-1
 48
1.0
  6
Continuous
100
AcDbCircle
 10
61.552614461009519
 20
72.845258100255336
 30
0.0
 40
1.5
100
AcDbArc
 50
270.90775686893062
 51
0.0
  0
CIRCLE
  5
245
100
AcDbEntity
  8
0
 62
256
370
-1
 48
1.0
  6
Continuous
100
AcDbCircle
 10
67.36106733530174
 20
82.717364967161416
 30
0.0
 40
0.7999999999999921
  0
CIRCLE
  5
246
100
AcDbEntity
  8
0
 62
256
370
-1
 48
1.0
  6
Continuous
100
AcDbCircle
 10
67.36106733530174
 20
71.317364967161396
 30
0.0
 40
0.8000000000181616
  0
LINE
  5
247
100
AcDbEntity
  8
0
 62
256
370
-1
 48
1.0
  6
Continuous
100
AcDbLine
 10
68.160966932754789
 20
82.704690820466951
 30
0.0
 11
69.133359497777732
 21
82.689283579291981
 31
0.0
  0
LINE
  5
248
100
AcDbEntity
  8
0
 62
256
370
-1
 48
1.0
  6
Continuous
100
AcDbLine
 10
70.609595472725587
 20
81.18947183406749
 30
0.0
 11
70.609595472725587
 21
72.845258100255336
 31
0.0
  0
ARC
  5
249
100
AcDbEntity
  8
0
 62
256
370
-1
 48
1.0
  6
Continuous
100
AcDbCircle
 10
69.109595472725573
 20
81.18947183406749
 30
0.0
 40
1.5
100
AcDbArc
 50
0.0
 51
89.092243131069438
  0
LINE
  5
24A
100
AcDbEntity
  8
0
 62
256
370
-1
 48
1.0
  6
Continuous
100
AcDbLine
 10
69.133359497777732
 20
71.345446355030845
 30
0.0
 11
68.160966932772951
 21
71.330039113856159
 31
0.0
  0
ARC
  5
24B
100
AcDbEntity
  8
0
 62
256
370
-1
 48
1.0
  6
Continuous
100
AcDbCircle
 10
69.109595472725573
 20
72.845258100255336
 30
0.0
 40
1.5
100
AcDbArc
 50
270.90775686893062
 51
0.0
  0
CIRCLE
  5
24C
100
AcDbEntity
  8
0
 62
256
370
-1
 48
1.0
  6
Continuous
100
AcDbCircle
 10
74.918048347017802
 20
82.717364967161416
 30
0.0
 40
0.7999999999999921
  0
CIRCLE
  5
24D
100
AcDbEntity
  8
0
 62
256
370
-1
 48
1.0
  6
Continuous
100
AcDbCircle
 10
74.918048347017802
 20
71.317364967161396
 30
0.0
 40
0.8000000000181616
  0
LINE
  5
24E
100
AcDbEntity
  8
0
 62
256
370
-1
 48
1.0
  6
Continuous
100
AcDbLine
 10
75.717947944470851
 20
82.704690820466951
 30
0.0
 11
76.690340509493794
 21
82.689283579291981
 31
0.0
  0
LINE
  5
24F
100
AcDbEntity
  8
0
 62
256
370
-1
 48
1.0
  6
Continuous
100
AcDbLine
 10
78.166576484441649
 20
81.18947183406749
 30
0.0
 11
78.166576484441649
 21
72.845258100255336
 31
0.0
  0
ARC
  5
250
100
AcDbEntity
  8
0
 62
256
370
-1
 48
1.0
  6
Continuous
100
AcDbCircle
 10
76.666576484441634
 20
81.18947183406749
 30
0.0
 40
1.5
100
AcDbArc
 50
0.0
 51
89.092243131069438
  0
LINE
  5
251
100
AcDbEntity
  8
0
 62
256
370
-1
 48
1.0
  6
Continuous
100
AcDbLine
 10
76.690340509493794
 20
71.345446355030845
 30
0.0
 11
75.717947944489012
 21
71.330039113856159
 31
0.0
  0
ARC
  5
252
100
AcDbEntity
  8
0
 62
256
370
-1
 48
1.0
  6
Continuous
100
AcDbCircle
 10
76.666576484441634
 20
72.845258100255336
 30
0.0
 40
1.5
100
AcDbArc
 50
270.90775686893062
 51
0.0
  0
CIRCLE
  5
253
100
AcDbEntity
  8
0
 62
256
370
-1
 48
1.0
  6
Continuous
100
AcDbCircle
 10
82.475029358733835
 20
82.717364967161416
 30
0.0
 40
0.7999999999999921
  0
CIRCLE
  5
254
100
AcDbEntity
  8
0
 62
256
370
-1
 48
1.0
  6
Continuous
100
AcDbCircle
 10
82.475029358733835
 20
71.317364967161396
 30
0.0
 40
0.8000000000181616
  0
LINE
  5
255
100
AcDbEntity
  8
0
 62
256
370
-1
 48
1.0
  6
Continuous
100
AcDbLine
 10
83.274928956186884
 20
82.704690820466951
 30
0.0
 11
84.247321521209841
 21
82.689283579291981
 31
0.0
  0
LINE
  5
256
100
AcDbEntity
  8
0
 62
256
370
-1
 48
1.0
  6
Continuous
100
AcDbLine
 10
85.723557496157696
 20
81.18947183406749
 30
0.0
 11
85.723557496157696
 21
72.845258100255336
 31
0.0
  0
ARC
  5
257
100
AcDbEntity
  8
0
 62
256
370
-1
 48
1.0
  6
Continuous
100
AcDbCircle
 10
84.223557496157696
 20
81.18947183406749
 30
0.0
 40
1.5
100
AcDbArc
 50
0.0
 51
89.092243131069438
  0
LINE
  5
258
100
AcDbEntity
  8
0
 62
256
370
-1
 48
1.0
  6
Continuous
100
AcDbLine
 10
84.247321521209841
 20
71.345446355030845
 30
0.0
 11
83.274928956205059
 21
71.330039113856159
 31
0.0
  0
ARC
  5
259
100
AcDbEntity
  8
0
 62
256
370
-1
 48
1.0
  6
Continuous
100
AcDbCircle
 10
84.223557496157696
 20
72.845258100255336
 30
0.0
 40
1.5
100
AcDbArc
 50
270.90775686893062
 51
0.0
  0
CIRCLE
  5
25A
100
AcDbEntity
  8
0
 62
256
370
-1
 48
1.0
  6
Continuous
100
AcDbCircle
 10
90.03201037044991
 20
82.717364967161416
 30
0.0
 40
0.7999999999999921
  0
CIRCLE
  5
25B
100
AcDbEntity
  8
0
 62
256
370
-1
 48
1.0
  6
Continuous
100
AcDbCircle
 10
90.03201037044991
 20
71.317364967161396
 30
0.0
 40
0.8000000000181616
  0
LINE
  5
25C
100
AcDbEntity
  8
0
 62
256
370
-1
 48
1.0
  6
Continuous
100
AcDbLine
 10
90.831909967902959
 20
82.704690820466951
 30
0.0
 11
91.804302532925888
 21
82.689283579291981
 31
0.0
  0
LINE
  5
25D
100
AcDbEntity
  8
0
 62
256
370
-1
 48
1.0
  6
Continuous
100
AcDbLine
 10
93.280538507873743
 20
81.18947183406749
 30
0.0
 11
93.280538507873743
 21
72.845258100255336
 31
0.0
  0
ARC
  5
25E
100
AcDbEntity
  8
0
 62
256
370
-1
 48
1.0
  6
Continuous
100
AcDbCircle
 10
91.780538507873757
 20
81.18947183406749
 30
0.0
 40
1.5
100
AcDbArc
 50
0.0
 51
89.092243131069438
  0
LINE
  5
25F
100
AcDbEntity
  8
0
 62
256
370
-1
 48
1.0
  6
Continuous
100
AcDbLine
 10
91.804302532925888
 20
71.345446355030845
 30
0.0
 11
90.831909967921121
 21
71.330039113856159
 31
0.0
  0
ARC
  5
260
100
AcDbEntity
  8
0
 62
256
370
-1
 48
1.0
  6
Continuous
100
AcDbCircle
 10
91.780538507873757
 20
72.845258100255336
 30
0.0
 40
1.5
100
AcDbArc
 50
270.90775686893062
 51
0.0
  0
CIRCLE
  5
261
100
AcDbEntity
  8
0
 62
256
370
-1
 48
1.0
  6
Continuous
100
AcDbCircle
 10
97.588991382165986
 20
82.717364967161416
 30
0.0
 40
0.7999999999999921
  0
CIRCLE
  5
262
100
AcDbEntity
  8
0
 62
256
370
-1
 48
1.0
  6
Continuous
100
AcDbCircle
 10
97.588991382165986
 20
71.317364967161396
 30
0.0
 40
0.8000000000181616
  0
LINE
  5
263
100
AcDbEntity
  8
0
 62
256
370
-1
 48
1.0
  6
Continuous
100
AcDbLine
 10
98.388890979619035
 20
82.704690820466951
 30
0.0
 11
99.361283544641964
 21
82.689283579291981
 31
0.0
  0
LINE
  5
264
100
AcDbEntity
  8
0
 62
256
370
-1
 48
1.0
  6
Continuous
100
AcDbLine
 10
100.8375195195898
 20
81.18947183406749
 30
0.0
 11
100.8375195195898
 21
72.845258100255336
 31
0.0
  0
ARC
  5
265
100
AcDbEntity
  8
0
 62
256
370
-1
 48
1.0
  6
Continuous
100
AcDbCircle
 10
99.337519519589804
 20
81.18947183406749
 30
0.0
 40
1.5
100
AcDbArc
 50
0.0
 51
89.092243131069438
  0
LINE
  5
266
100
AcDbEntity
  8
0
 62
256
370
-1
 48
1.0
  6
Continuous
100
AcDbLine
 10
99.361283544641964
 20
71.345446355030845
 30
0.0
 11
98.388890979637182
 21
71.330039113856159
 31
0.0
  0
ARC
  5
267
100
AcDbEntity
  8
0
 62
256
370
-1
 48
1.0
  6
Continuous
100
AcDbCircle
 10
99.337519519589804
 20
72.845258100255336
 30
0.0
 40
1.5
100
AcDbArc
 50
270.90775686893062
 51
0.0
  0
CIRCLE
  5
268
100
AcDbEntity
  8
0
 62
256
370
-1
 48
1.0
  6
Continuous
100
AcDbCircle
 10
105.145972393882
 20
82.717364967161416
 30
0.0
 40
0.7999999999999921
  0
CIRCLE
  5
269
100
AcDbEntity
  8
0
 62
256
370
-1
 48
1.0
  6
Continuous
100
AcDbCircle
 10
105.145972393882
 20
71.317364967161396
 30
0.0
 40
0.8000000000181616
  0
LINE
  5
26A
100
AcDbEntity
  8
0
 62
256
370
-1
 48
1.0
  6
Continuous
100
AcDbLine
 10
105.9458719913351
 20
82.704690820466951
 30
0.0
 11
106.918264556358
 21
82.689283579291981
 31
0.0
  0
LINE
  5
26B
100
AcDbEntity
  8
0
 62
256
370
-1
 48
1.0
  6
Continuous
100
AcDbLine
 10
108.39450053130589
 20
81.18947183406749
 30
0.0
 11
108.39450053130589
 21
72.845258100255336
 31
0.0
  0
ARC
  5
26C
100
AcDbEntity
  8
0
 62
256
370
-1
 48
1.0
  6
Continuous
100
AcDbCircle
 10
106.89450053130589
 20
81.18947183406749
 30
0.0
 40
1.5
100
AcDbArc
 50
0.0
 51
89.092243131069438
  0
LINE
  5
26D
100
AcDbEntity
  8
0
 62
256
370
-1
 48
1.0
  6
Continuous
100
AcDbLine
 10
106.918264556358
 20
71.345446355030845
 30
0.0
 11
105.9458719913532
 21
71.330039113856159
 31
0.0
  0
ARC
  5
26E
100
AcDbEntity
  8
0
 62
256
370
-1
 48
1.0
  6
Continuous
100
AcDbCircle
 10
106.89450053130589
 20
72.845258100255336
 30
0.0
 40
1.5
100
AcDbArc
 50
270.90775686893062
 51
0.0
  0
CIRCLE
  5
26F
100
AcDbEntity
  8
0
 62
256
370
-1
 48
1.0
  6
Continuous
100
AcDbCircle
 10
112.70295340559809
 20
82.717364967161416
 30
0.0
 40
0.7999999999999921
  0
CIRCLE
  5
270
100
AcDbEntity
  8
0
 62
256
370
-1
 48
1.0
  6
Continuous
100
AcDbCircle
 10
112.70295340559809
 20
71.317364967161396
 30
0.0
 40
0.8000000000181616
  0
LINE
  5
271
100
AcDbEntity
  8
0
 62
256
370
-1
 48
1.0
  6
Continuous
100
AcDbLine
 10
113.5028530030511
 20
82.704690820466951
 30
0.0
 11
114.4752455680741
 21
82.689283579291981
 31
0.0
  0
LINE
  5
272
100
AcDbEntity
  8
0
 62
256
370
-1
 48
1.0
  6
Continuous
100
AcDbLine
 10
115.9514815430219
 20
81.18947183406749
 30
0.0
 11
115.9514815430219
 21
72.845258100255336
 31
0.0
  0
ARC
  5
273
100
AcDbEntity
  8
0
 62
256
370
-1
 48
1.0
  6
Continuous
100
AcDbCircle
 10
114.4514815430219
 20
81.18947183406749
 30
0.0
 40
1.5
100
AcDbArc
 50
0.0
 51
89.092243131069438
  0
LINE
  5
274
100
AcDbEntity
  8
0
 62
256
370
-1
 48
1.0
  6
Continuous
100
AcDbLine
 10
114.4752455680741
 20
71.345446355030845
 30
0.0
 11
113.5028530030693
 21
71.330039113856159
 31
0.0
  0
ARC
  5
275
100
AcDbEntity
  8
0
 62
256
370
-1
 48
1.0
  6
Continuous
100
AcDbCircle
 10
114.4514815430219
 20
72.845258100255336
 30
0.0
 40
1.5
100
AcDbArc
 50
270.90775686893062
 51
0.0
  0
CIRCLE
  5
276
100
AcDbEntity
  8
0
 62
256
370
-1
 48
1.0
  6
Continuous
100
AcDbCircle
 10
120.2599344173141
 20
82.717364967161416
 30
0.0
 40
0.7999999999999921
  0
CIRCLE
  5
277
100
AcDbEntity
  8
0
 62
256
370
-1
 48
1.0
  6
Continuous
100
AcDbCircle
 10
120.2599344173141
 20
71.317364967161396
 30
0.0
 40
0.8000000000181616
  0
LINE
  5
278
100
AcDbEntity
  8
0
 62
256
370
-1
 48
1.0
  6
Continuous
100
AcDbLine
 10
121.0598340147672
 20
82.704690820466951
 30
0.0
 11
122.03222657979011
 21
82.689283579291981
 31
0.0
  0
LINE
  5
279
100
AcDbEntity
  8
0
 62
256
370
-1
 48
1.0
  6
Continuous
100
AcDbLine
 10
123.508462554738
 20
81.18947183406749
 30
0.0
 11
123.508462554738
 21
72.845258100255336
 31
0.0
  0
ARC
  5
27A
100
AcDbEntity
  8
0
 62
256
370
-1
 48
1.0
  6
Continuous
100
AcDbCircle
 10
122.008462554738
 20
81.18947183406749
 30
0.0
 40
1.5
100
AcDbArc
 50
0.0
 51
89.092243131069438
  0
LINE
  5
27B
100
AcDbEntity
  8
0
 62
256
370
-1
 48
1.0
  6
Continuous
100
AcDbLine
 10
122.03222657979011
 20
71.345446355030845
 30
0.0
 11
121.0598340147853
 21
71.330039113856159
 31
0.0
  0
ARC
  5
27C
100
AcDbEntity
  8
0
 62
256
370
-1
 48
1.0
  6
Continuous
100
AcDbCircle
 10
122.008462554738
 20
72.845258100255336
 30
0.0
 40
1.5
100
AcDbArc
 50
270.90775686893062
 51
0.0
  0
CIRCLE
  5
27D
100
AcDbEntity
  8
0
 62
256
370
-1
 48
1.0
  6
Continuous
100
AcDbCircle
 10
127.8169154290302
 20
82.717364967161416
 30
0.0
 40
0.7999999999999921
  0
CIRCLE
  5
27E
100
AcDbEntity
  8
0
 62
256
370
-1
 48
1.0
  6
Continuous
100
AcDbCircle
 10
127.8169154290302
 20
71.317364967161396
 30
0.0
 40
0.8000000000181616
  0
LINE
  5
27F
100
AcDbEntity
  8
0
 62
256
370
-1
 48
1.0
  6
Continuous
100
AcDbLine
 10
128.61681502648321
 20
82.704690820466951
 30
0.0
 11
129.58920759150621
 21
82.689283579291981
 31
0.0
  0
LINE
  5
280
100
AcDbEntity
  8
0
 62
256
370
-1
 48
1.0
  6
Continuous
100
AcDbLine
 10
131.06544356645401
 20
81.18947183406749
 30
0.0
 11
131.06544356645401
 21
72.845258100255336
 31
0.0
  0
ARC
  5
281
100
AcDbEntity
  8
0
 62
256
370
-1
 48
1.0
  6
Continuous
100
AcDbCircle
 10
129.56544356645401
 20
81.18947183406749
 30
0.0
 40
1.5
100
AcDbArc
 50
0.0
 51
89.092243131069438
  0
LINE
  5
282
100
AcDbEntity
  8
0
 62
256
370
-1
 48
1.0
  6
Continuous
100
AcDbLine
 10
129.58920759150621
 20
71.345446355030845
 30
0.0
 11
128.6168150265014
 21
71.330039113856159
 31
0.0
  0
ARC
  5
283
100
AcDbEntity
  8
0
 62
256
370
-1
 48
1.0
  6
Continuous
100
AcDbCircle
 10
129.56544356645401
 20
72.845258100255336
 30
0.0
 40
1.5
100
AcDbArc
 50
270.90775686893062
 51
0.0
  0
CIRCLE
  5
284
100
AcDbEntity
  8
0
 62
256
370
-1
 48
1.0
  6
Continuous
100
AcDbCircle
 10
135.37389644074631
 20
82.717364967161416
 30
0.0
 40
0.7999999999999921
  0
CIRCLE
  5
285
100
AcDbEntity
  8
0
 62
256
370
-1
 48
1.0
  6
Continuous
100
AcDbCircle
 10
135.37389644074631
 20
71.317364967161396
 30
0.0
 40
0.8000000000181616
  0
LINE
  5
286
100
AcDbEntity
  8
0
 62
256
370
-1
 48
1.0
  6
Continuous
100
AcDbLine
 10
136.1737960381993
 20
82.704690820466951
 30
0.0
 11
137.14618860322221
 21
82.689283579291981
 31
0.0
  0
LINE
  5
287
100
AcDbEntity
  8
0
 62
256
370
-1
 48
1.0
  6
Continuous
100
AcDbLine
 10
138.6224245781701
 20
81.18947183406749
 30
0.0
 11
138.6224245781701
 21
72.845258100255336
 31
0.0
  0
ARC
  5
288
100
AcDbEntity
  8
0
 62
256
370
-1
 48
1.0
  6
Continuous
100
AcDbCircle
 10
137.1224245781701
 20
81.18947183406749
 30
0.0
 40
1.5
100
AcDbArc
 50
0.0
 51
89.092243131068642
  0
LINE
  5
289
100
AcDbEntity
  8
0
 62
256
370
-1
 48
1.0
  6
Continuous
100
AcDbLine
 10
137.14618860322221
 20
71.345446355030845
 30
0.0
 11
136.17379603821749
 21
71.330039113856159
 31
0.0
  0
ARC
  5
28A
100
AcDbEntity
  8
0
 62
256
370
-1
 48
1.0
  6
Continuous
100
AcDbCircle
 10
137.1224245781701
 20
72.845258100255336
 30
0.0
 40
1.5
100
AcDbArc
 50
270.90775686892982
 51
0.0
  0
CIRCLE
  5
28B
100
AcDbEntity
  8
0
 62
256
370
-1
 48
1.0
  6
Continuous
100
AcDbCircle
 10
142.93087745246231
 20
82.717364967161416
 30
0.0
 40
0.7999999999999921
  0
CIRCLE
  5
28C
100
AcDbEntity
  8
0
 62
256
370
-1
 48
1.0
  6
Continuous
100
AcDbCircle
 10
142.93087745246231
 20
71.317364967161396
 30
0.0
 40
0.8000000000181616
  0
LINE
  5
28D
100
AcDbEntity
  8
0
 62
256
370
-1
 48
1.0
  6
Continuous
100
AcDbLine
 10
143.7307770499153
 20
82.704690820466951
 30
0.0
 11
144.7031696149383
 21
82.689283579291981
 31
0.0
  0
LINE
  5
28E
100
AcDbEntity
  8
0
 62
256
370
-1
 48
1.0
  6
Continuous
100
AcDbLine
 10
146.1794055898861
 20
81.18947183406749
 30
0.0
 11
146.1794055898861
 21
72.845258100255336
 31
0.0
  0
ARC
  5
28F
100
AcDbEntity
  8
0
 62
256
370
-1
 48
1.0
  6
Continuous
100
AcDbCircle
 10
144.6794055898861
 20
81.18947183406749
 30
0.0
 40
1.5
100
AcDbArc
 50
0.0
 51
89.092243131068642
  0
LINE
  5
290
100
AcDbEntity
  8
0
 62
256
370
-1
 48
1.0
  6
Continuous
100
AcDbLine
 10
144.7031696149383
 20
71.345446355030845
 30
0.0
 11
143.73077704993349
 21
71.330039113856159
 31
0.0
  0
ARC
  5
291
100
AcDbEntity
  8
0
 62
256
370
-1
 48
1.0
  6
Continuous
100
AcDbCircle
 10
144.6794055898861
 20
72.845258100255336
 30
0.0
 40
1.5
100
AcDbArc
 50
270.90775686892982
 51
0.0
  0
LINE
  5
292
100
AcDbEntity
  8
0
 62
256
370
-1
 48
1.0
  6
BYLAYER
100
AcDbLine
 10
39.842867114888385
 20
133.0451118101044
 30
0.0
 11
57.742867114888384
 21
133.0451118101044
 31
0.0
  0
ARC
  5
293
100
AcDbEntity
  8
0
 62
256
370
-1
 48
1.0
  6
BYLAYER
100
AcDbCircle
 10
57.742867114888384
 20
133.94511181010441
 30
0.0
 40
0.9
100
AcDbArc
 50
270.0
 51
0.0
  0
LINE
  5
294
100
AcDbEntity
  8
0
 62
256
370
-1
 48
1.0
  6
BYLAYER
100
AcDbLine
 10
58.642867114888382
 20
133.94511181010441
 30
0.0
 11
58.642867114888382
 21
133.94511181010441
 31
0.0
  0
ARC
  5
295
100
AcDbEntity
  8
0
 62
256
370
-1
 48
1.0
  6
BYLAYER
100
AcDbCircle
 10
57.742867114888384
 20
133.94511181010441
 30
0.0
 40
0.9
100
AcDbArc
 50
0.0
 51
90.0
  0
LINE
  5
296
100
AcDbEntity
  8
0
 62
256
370
-1
 48
1.0
  6
BYLAYER
100
AcDbLine
 10
57.742867114888384
 20
134.84511181010441
 30
0.0
 11
39.842867114888385
 21
134.84511181010441
 31
0.0
  0
ARC
  5
297
100
AcDbEntity
  8
0
 62
256
370
-1
 48
1.0
  6
BYLAYER
100
AcDbCircle
 10
39.842867114888385
 20
133.94511181010441
 30
0.0
 40
0.9
100
AcDbArc
 50
90.0
 51
180.0
  0
LINE
  5
298
100
AcDbEntity
  8
0
 62
256
370
-1
 48
1.0
  6
BYLAYER
100
AcDbLine
 10
38.942867114888386
 20
133.94511181010441
 30
0.0
 11
38.942867114888386
 21
133.94511181010441
 31
0.0
  0
ARC
  5
299
100
AcDbEntity
  8
0
 62
256
370
-1
 48
1.0
  6
BYLAYER
100
AcDbCircle
 10
39.842867114888385
 20
133.94511181010441
 30
0.0
 40
0.9
100
AcDbArc
 50
180.0
 51
270.0
  0
LINE
  5
29A
100
AcDbEntity
  8
0
 62
256
370
-1
 48
1.0
  6
BYLAYER
100
AcDbLine
 10
343.84286711488829
 20
133.0451118101044
 30
0.0
 11
361.74286711488838
 21
133.0451118101044
 31
0.0
  0
ARC
  5
29B
100
AcDbEntity
  8
0
 62
256
370
-1
 48
1.0
  6
BYLAYER
100
AcDbCircle
 10
361.74286711488838
 20
133.94511181010441
 30
0.0
 40
0.9
100
AcDbArc
 50
270.0
 51
0.0
  0
LINE
  5
29C
100
AcDbEntity
  8
0
 62
256
370
-1
 48
1.0
  6
BYLAYER
100
AcDbLine
 10
362.64286711488836
 20
133.94511181010441
 30
0.0
 11
362.64286711488836
 21
133.94511181010441
 31
0.0
  0
ARC
  5
29D
100
AcDbEntity
  8
0
 62
256
370
-1
 48
1.0
  6
BYLAYER
100
AcDbCircle
 10
361.74286711488838
 20
133.94511181010441
 30
0.0
 40
0.9
100
AcDbArc
 50
0.0
 51
90.0
  0
LINE
  5
29E
100
AcDbEntity
  8
0
 62
256
370
-1
 48
1.0
  6
BYLAYER
100
AcDbLine
 10
361.74286711488838
 20
134.84511181010441
 30
0.0
 11
343.84286711488829
 21
134.84511181010441
 31
0.0
  0
ARC
  5
29F
100
AcDbEntity
  8
0
 62
256
370
-1
 48
1.0
  6
BYLAYER
100
AcDbCircle
 10
343.84286711488829
 20
133.94511181010441
 30
0.0
 40
0.9
100
AcDbArc
 50
90.0
 51
180.0
  0
LINE
  5
2A0
100
AcDbEntity
  8
0
 62
256
370
-1
 48
1.0
  6
BYLAYER
100
AcDbLine
 10
342.94286711488832
 20
133.94511181010441
 30
0.0
 11
342.94286711488832
 21
133.94511181010441
 31
0.0
  0
ARC
  5
2A1
100
AcDbEntity
  8
0
 62
256
370
-1
 48
1.0
  6
BYLAYER
100
AcDbCircle
 10
343.84286711488829
 20
133.94511181010441
 30
0.0
 40
0.9
100
AcDbArc
 50
180.0
 51
270.0
  0
LINE
  5
2A2
100
AcDbEntity
  8
0
 62
256
370
-1
 48
1.0
  6
BYLAYER
100
AcDbLine
 10
343.84286711488841
 20
118.0451118101044
 30
0.0
 11
361.7428671148885
 21
118.0451118101044
 31
0.0
  0
ARC
  5
2A3
100
AcDbEntity
  8
0
 62
256
370
-1
 48
1.0
  6
BYLAYER
100
AcDbCircle
 10
361.7428671148885
 20
118.94511181010441
 30
0.0
 40
0.9
100
AcDbArc
 50
270.0
 51
0.0
  0
LINE
  5
2A4
100
AcDbEntity
  8
0
 62
256
370
-1
 48
1.0
  6
BYLAYER
100
AcDbLine
 10
362.64286711488847
 20
118.94511181010441
 30
0.0
 11
362.64286711488847
 21
118.94511181010441
 31
0.0
  0
ARC
  5
2A5
100
AcDbEntity
  8
0
 62
256
370
-1
 48
1.0
  6
BYLAYER
100
AcDbCircle
 10
361.7428671148885
 20
118.94511181010441
 30
0.0
 40
0.9
100
AcDbArc
 50
0.0
 51
90.0
  0
LINE
  5
2A6
100
AcDbEntity
  8
0
 62
256
370
-1
 48
1.0
  6
BYLAYER
100
AcDbLine
 10
361.7428671148885
 20
119.84511181010441
 30
0.0
 11
343.84286711488841
 21
119.84511181010441
 31
0.0
  0
ARC
  5
2A7
100
AcDbEntity
  8
0
 62
256
370
-1
 48
1.0
  6
BYLAYER
100
AcDbCircle
 10
343.84286711488841
 20
118.94511181010441
 30
0.0
 40
0.9
100
AcDbArc
 50
90.0
 51
180.0
  0
LINE
  5
2A8
100
AcDbEntity
  8
0
 62
256
370
-1
 48
1.0
  6
BYLAYER
100
AcDbLine
 10
342.94286711488843
 20
118.94511181010441
 30
0.0
 11
342.94286711488843
 21
118.94511181010441
 31
0.0
  0
ARC
  5
2A9
100
AcDbEntity
  8
0
 62
256
370
-1
 48
1.0
  6
BYLAYER
100
AcDbCircle
 10
343.84286711488841
 20
118.94511181010441
 30
0.0
 40
0.9
100
AcDbArc
 50
180.0
 51
270.0
  0
LINE
  5
2AA
100
AcDbEntity
  8
0
 62
256
370
-1
 48
1.0
  6
BYLAYER
100
AcDbLine
 10
39.842867114888456
 20
118.04511181010442
 30
0.0
 11
57.742867114888455
 21
118.04511181010442
 31
0.0
  0
ARC
  5
2AB
100
AcDbEntity
  8
0
 62
256
370
-1
 48
1.0
  6
BYLAYER
100
AcDbCircle
 10
57.742867114888455
 20
118.94511181010442
 30
0.0
 40
0.9
100
AcDbArc
 50
270.0
 51
0.0
  0
LINE
  5
2AC
100
AcDbEntity
  8
0
 62
256
370
-1
 48
1.0
  6
BYLAYER
100
AcDbLine
 10
58.642867114888453
 20
118.94511181010442
 30
0.0
 11
58.642867114888453
 21
118.94511181010442
 31
0.0
  0
ARC
  5
2AD
100
AcDbEntity
  8
0
 62
256
370
-1
 48
1.0
  6
BYLAYER
100
AcDbCircle
 10
57.742867114888455
 20
118.94511181010442
 30
0.0
 40
0.9
100
AcDbArc
 50
0.0
 51
90.0
  0
LINE
  5
2AE
100
AcDbEntity
  8
0
 62
256
370
-1
 48
1.0
  6
BYLAYER
100
AcDbLine
 10
57.742867114888455
 20
119.84511181010443
 30
0.0
 11
39.842867114888456
 21
119.84511181010443
 31
0.0
  0
ARC
  5
2AF
100
AcDbEntity
  8
0
 62
256
370
-1
 48
1.0
  6
BYLAYER
100
AcDbCircle
 10
39.842867114888456
 20
118.94511181010442
 30
0.0
 40
0.9
100
AcDbArc
 50
90.0
 51
180.0
  0
LINE
  5
2B0
100
AcDbEntity
  8
0
 62
256
370
-1
 48
1.0
  6
BYLAYER
100
AcDbLine
 10
38.942867114888458
 20
118.94511181010442
 30
0.0
 11
38.942867114888458
 21
118.94511181010442
 31
0.0
  0
ARC
  5
2B1
100
AcDbEntity
  8
0
 62
256
370
-1
 48
1.0
  6
BYLAYER
100
AcDbCircle
 10
39.842867114888456
 20
118.94511181010442
 30
0.0
 40
0.9
100
AcDbArc
 50
180.0
 51
270.0
  0
ENDSEC
  0
SECTION
  2
OBJECTS
  0
DICTIONARY
  5
C
100
AcDbDictionary
280
0
281
1
  3
ACAD_GROUP
350
D
  3
ACAD_LAYOUT
350
1A
  3
ACAD_MLINESTYLE
350
17
  3
ACAD_PLOTSETTINGS
350
19
  3
ACAD_PLOTSTYLENAME
350
E
  3
AcDbVariableDictionary
350
2B2
  3
QCAD_OBJECTS
350
2B3
  0
DICTIONARY
  5
D
100
AcDbDictionary
280
0
281
1
  0
ACDBDICTIONARYWDFLT
  5
E
100
AcDbDictionary
281
1
  3
Normal
350
F
100
AcDbDictionaryWithDefault
340
F
  0
ACDBPLACEHOLDER
  5
F
  0
DICTIONARY
  5
17
100
AcDbDictionary
280
0
281
1
  3
Standard
350
18
  0
MLINESTYLE
  5
18
100
AcDbMlineStyle
  2
STANDARD
 70
0
  3

 62
256
 51
90.0
 52
90.0
 71
2
 49
0.5
 62
256
  6
BYLAYER
 49
-0.5
 62
256
  6
BYLAYER
  0
DICTIONARY
  5
19
100
AcDbDictionary
280
0
281
1
  0
DICTIONARY
  5
1A
100
AcDbDictionary
281
1
  3
Layout1
350
1E
  3
Layout2
350
26
  3
Model
350
22
  0
LAYOUT
  5
1E
100
AcDbPlotSettings
  1

  2
none_device
  4

  6

 40
0.0
 41
0.0
 42
0.0
 43
0.0
 44
0.0
 45
0.0
 46
0.0
 47
0.0
 48
0.0
 49
0.0
140
0.0
141
0.0
142
1.0
143
1.0
 70
688
 72
0
 73
0
 74
5
  7

 75
16
147
1.0
148
0.0
149
0.0
100
AcDbLayout
  1
Layout1
 70
1
 71
1
 10
0.0
 20
0.0
 11
420.0
 21
297.0
 12
0.0
 22
0.0
 32
0.0
 14
100000000000000000000.0
 24
100000000000000000000.0
 34
100000000000000000000.0
 15
-100000000000000000000.0
 25
-100000000000000000000.0
 35
-100000000000000000000.0
146
0.0
 13
0.0
 23
0.0
 33
0.0
 16
1.0
 26
0.0
 36
0.0
 17
0.0
 27
1.0
 37
0.0
 76
0
330
1B
  0
LAYOUT
  5
22
100
AcDbPlotSettings
  1

  2
none_device
  4

  6

 40
0.0
 41
0.0
 42
0.0
 43
0.0
 44
0.0
 45
0.0
 46
0.0
 47
0.0
 48
0.0
 49
0.0
140
0.0
141
0.0
142
1.0
143
1.0
 70
1712
 72
0
 73
0
 74
0
  7

 75
0
147
1.0
148
0.0
149
0.0
100
AcDbLayout
  1
Model
 70
1
 71
0
 10
0.0
 20
0.0
 11
12.0
 21
9.0
 12
0.0
 22
0.0
 32
0.0
 14
0.0
 24
0.0
 34
0.0
 15
0.0
 25
0.0
 35
0.0
146
0.0
 13
0.0
 23
0.0
 33
0.0
 16
1.0
 26
0.0
 36
0.0
 17
0.0
 27
1.0
 37
0.0
 76
0
330
1F
  0
LAYOUT
  5
26
100
AcDbPlotSettings
  1

  2
none_device
  4

  6

 40
0.0
 41
0.0
 42
0.0
 43
0.0
 44
0.0
 45
0.0
 46
0.0
 47
0.0
 48
0.0
 49
0.0
140
0.0
141
0.0
142
1.0
143
1.0
 70
688
 72
0
 73
0
 74
5
  7

 75
16
147
1.0
148
0.0
149
0.0
100
AcDbLayout
  1
Layout2
 70
1
 71
2
 10
0.0
 20
0.0
 11
12.0
 21
9.0
 12
0.0
 22
0.0
 32
0.0
 14
0.0
 24
0.0
 34
0.0
 15
0.0
 25
0.0
 35
0.0
146
0.0
 13
0.0
 23
0.0
 33
0.0
 16
1.0
 26
0.0
 36
0.0
 17
0.0
 27
1.0
 37
0.0
 76
0
330
23
  0
DICTIONARY
  5
2B2
100
AcDbDictionary
281
1
  3
DIMASSOC
350
2B5
  3
HIDETEXT
350
2B4
  0
DICTIONARYVAR
  5
2B4
100
DictionaryVariables
280
0
  1
2
  0
DICTIONARYVAR
  5
2B5
100
DictionaryVariables
280
0
  1
1
  0
DICTIONARY
  5
2B3
100
AcDbDictionary
281
1
  3
ColorSettings/BackgroundColor
350
2B6
  3
ColorSettings/ColorMode
350
2B7
  3
Grid/DisplayGrid00
350
2B8
  3
Grid/DisplayGrid01
350
2B9
  3
Grid/DisplayGrid02
350
2BA
  3
Grid/DisplayGrid03
350
2BB
  3
Grid/GridSpacingX00
350
2BC
  3
Grid/GridSpacingX01
350
2BD
  3
Grid/GridSpacingX02
350
2BE
  3
Grid/GridSpacingX03
350
2BF
  3
Grid/GridSpacingY00
350
2C0
  3
Grid/GridSpacingY01
350
2C1
  3
Grid/GridSpacingY02
350
2C2
  3
Grid/GridSpacingY03
350
2C3
  3
Grid/IsometricGrid00
350
2C4
  3
Grid/IsometricGrid01
350
2C5
  3
Grid/IsometricGrid02
350
2C6
  3
Grid/IsometricGrid03
350
2C7
  3
Grid/IsometricProjection00
350
2C8
  3
Grid/IsometricProjection01
350
2C9
  3
Grid/IsometricProjection02
350
2CA
  3
Grid/IsometricProjection03
350
2CB
  3
Grid/MetaGridSpacingX00
350
2CC
  3
Grid/MetaGridSpacingX01
350
2CD
  3
Grid/MetaGridSpacingX02
350
2CE
  3
Grid/MetaGridSpacingX03
350
2CF
  3
Grid/MetaGridSpacingY00
350
2D0
  3
Grid/MetaGridSpacingY01
350
2D1
  3
Grid/MetaGridSpacingY02
350
2D2
  3
Grid/MetaGridSpacingY03
350
2D3
  3
MultiPageSettings/Columns
350
2D4
  3
MultiPageSettings/GlueMarginsBottom
350
2D5
  3
MultiPageSettings/GlueMarginsLeft
350
2D6
  3
MultiPageSettings/GlueMarginsRight
350
2D7
  3
MultiPageSettings/GlueMarginsTop
350
2D8
  3
MultiPageSettings/PrintCropMarks
350
2D9
  3
MultiPageSettings/Rows
350
2DA
  3
PageSettings/OffsetX
350
2DB
  3
PageSettings/OffsetY
350
2DC
  3
PageSettings/PageOrientation
350
2DD
  3
PageSettings/PaperHeight
350
2DE
  3
PageSettings/PaperWidth
350
2DF
  3
PageSettings/Scale
350
2E0
  3
PageSettings/ShowPaperBorders
350
2E1
  3
QCADVersion
350
2E2
  3
UnitSettings/PaperUnit
350
2E3
  3
ViewportCenter
350
2E4
  3
ViewportHeight
350
2E5
  3
ViewportWidth
350
2E6
  0
XRECORD
  5
2B6
330
2B3
100
AcDbXrecord
280
1
1000
White
  0
XRECORD
  5
2B7
330
2B3
100
AcDbXrecord
280
1
1000
FullColor
  0
XRECORD
  5
2B8
330
2B3
100
AcDbXrecord
280
1
290
1
  0
XRECORD
  5
2B9
330
2B3
100
AcDbXrecord
280
1
290
1
  0
XRECORD
  5
2BA
330
2B3
100
AcDbXrecord
280
1
290
1
  0
XRECORD
  5
2BB
330
2B3
100
AcDbXrecord
280
1
290
1
  0
XRECORD
  5
2BC
330
2B3
100
AcDbXrecord
280
1
1000
auto
  0
XRECORD
  5
2BD
330
2B3
100
AcDbXrecord
280
1
1000
auto
  0
XRECORD
  5
2BE
330
2B3
100
AcDbXrecord
280
1
1000
auto
  0
XRECORD
  5
2BF
330
2B3
100
AcDbXrecord
280
1
1000
auto
  0
XRECORD
  5
2C0
330
2B3
100
AcDbXrecord
280
1
1000
auto
  0
XRECORD
  5
2C1
330
2B3
100
AcDbXrecord
280
1
1000
auto
  0
XRECORD
  5
2C2
330
2B3
100
AcDbXrecord
280
1
1000
auto
  0
XRECORD
  5
2C3
330
2B3
100
AcDbXrecord
280
1
1000
auto
  0
XRECORD
  5
2C4
330
2B3
100
AcDbXrecord
280
1
290
0
  0
XRECORD
  5
2C5
330
2B3
100
AcDbXrecord
280
1
290
0
  0
XRECORD
  5
2C6
330
2B3
100
AcDbXrecord
280
1
290
0
  0
XRECORD
  5
2C7
330
2B3
100
AcDbXrecord
280
1
290
0
  0
XRECORD
  5
2C8
330
2B3
100
AcDbXrecord
280
1
 90
65537
  0
XRECORD
  5
2C9
330
2B3
100
AcDbXrecord
280
1
 90
65537
  0
XRECORD
  5
2CA
330
2B3
100
AcDbXrecord
280
1
 90
65537
  0
XRECORD
  5
2CB
330
2B3
100
AcDbXrecord
280
1
 90
65537
  0
XRECORD
  5
2CC
330
2B3
100
AcDbXrecord
280
1
1000
auto
  0
XRECORD
  5
2CD
330
2B3
100
AcDbXrecord
280
1
1000
auto
  0
XRECORD
  5
2CE
330
2B3
100
AcDbXrecord
280
1
1000
auto
  0
XRECORD
  5
2CF
330
2B3
100
AcDbXrecord
280
1
1000
auto
  0
XRECORD
  5
2D0
330
2B3
100
AcDbXrecord
280
1
1000
auto
  0
XRECORD
  5
2D1
330
2B3
100
AcDbXrecord
280
1
1000
auto
  0
XRECORD
  5
2D2
330
2B3
100
AcDbXrecord
280
1
1000
auto
  0
XRECORD
  5
2D3
330
2B3
100
AcDbXrecord
280
1
1000
auto
  0
XRECORD
  5
2D4
330
2B3
100
AcDbXrecord
280
1
 90
1
  0
XRECORD
  5
2D5
330
2B3
100
AcDbXrecord
280
1
 40
10.0
  0
XRECORD
  5
2D6
330
2B3
100
AcDbXrecord
280
1
 40
10.0
  0
XRECORD
  5
2D7
330
2B3
100
AcDbXrecord
280
1
 40
10.0
  0
XRECORD
  5
2D8
330
2B3
100
AcDbXrecord
280
1
 40
10.0
  0
XRECORD
  5
2D9
330
2B3
100
AcDbXrecord
280
1
290
0
  0
XRECORD
  5
2DA
330
2B3
100
AcDbXrecord
280
1
 90
1
  0
XRECORD
  5
2DB
330
2B3
100
AcDbXrecord
280
1
 40
0.0
  0
XRECORD
  5
2DC
330
2B3
100
AcDbXrecord
280
1
 40
0.0
  0
XRECORD
  5
2DD
330
2B3
100
AcDbXrecord
280
1
1000
Portrait
  0
XRECORD
  5
2DE
330
2B3
100
AcDbXrecord
280
1
 40
297.0
  0
XRECORD
  5
2DF
330
2B3
100
AcDbXrecord
280
1
 40
210.0
  0
XRECORD
  5
2E0
330
2B3
100
AcDbXrecord
280
1
1000
1:1
  0
XRECORD
  5
2E1
330
2B3
100
AcDbXrecord
280
1
290
1
  0
XRECORD
  5
2E2
330
2B3
100
AcDbXrecord
280
1
1000
3.22.0
  0
XRECORD
  5
2E3
330
2B3
100
AcDbXrecord
280
1
 90
4
  0
XRECORD
  5
2E5
330
2B3
100
AcDbXrecord
280
1
 40
296.27857202866892
  0
XRECORD
  5
2E6
330
2B3
100
AcDbXrecord
280
1
 40
596.52339000149675
  0
ENDSEC
  0
EOF
